  0
SECTION
  2
HEADER
  9
$ACADVER
  1
AC1015
  9
$ACADMAINTVER
 70
    20
  9
$DWGCODEPAGE
  3
ANSI_1252
  9
$INSBASE
 10
0.0
 20
0.0
 30
0.0
  9
$EXTMIN
 10
1.793645038126306
 20
0.6160647040120617
 30
0.0
  9
$EXTMAX
 10
61.57347510395439
 20
34.23936439637257
 30
0.0
  9
$LIMMIN
 10
0.0
 20
0.0
  9
$LIMMAX
 10
12.0
 20
9.0
  9
$ORTHOMODE
 70
     1
  9
$REGENMODE
 70
     1
  9
$FILLMODE
 70
     1
  9
$QTEXTMODE
 70
     0
  9
$MIRRTEXT
 70
     0
  9
$LTSCALE
 40
0.5
  9
$ATTMODE
 70
     1
  9
$TEXTSIZE
 40
0.2
  9
$TRACEWID
 40
0.05
  9
$TEXTSTYLE
  7
Standard
  9
$CLAYER
  8
0
  9
$CELTYPE
  6
ByLayer
  9
$CECOLOR
 62
   256
  9
$CELTSCALE
 40
1.0
  9
$DISPSILH
 70
     0
  9
$DIMSCALE
 40
1.0
  9
$DIMASZ
 40
0.0833333333333333
  9
$DIMEXO
 40
0.0625
  9
$DIMDLI
 40
0.0625
  9
$DIMRND
 40
0.0
  9
$DIMDLE
 40
0.0
  9
$DIMEXE
 40
0.0625
  9
$DIMTP
 40
0.0
  9
$DIMTM
 40
0.0
  9
$DIMTXT
 40
0.08
  9
$DIMCEN
 40
0.09
  9
$DIMTSZ
 40
0.0
  9
$DIMTOL
 70
     0
  9
$DIMLIM
 70
     0
  9
$DIMTIH
 70
     0
  9
$DIMTOH
 70
     0
  9
$DIMSE1
 70
     0
  9
$DIMSE2
 70
     0
  9
$DIMTAD
 70
     1
  9
$DIMZIN
 70
     2
  9
$DIMBLK
  1

  9
$DIMASO
 70
     1
  9
$DIMSHO
 70
     1
  9
$DIMPOST
  1

  9
$DIMAPOST
  1

  9
$DIMALT
 70
     0
  9
$DIMALTD
 70
     2
  9
$DIMALTF
 40
25.4
  9
$DIMLFAC
 40
1.0
  9
$DIMTOFL
 70
     0
  9
$DIMTVP
 40
0.0
  9
$DIMTIX
 70
     0
  9
$DIMSOXD
 70
     0
  9
$DIMSAH
 70
     0
  9
$DIMBLK1
  1

  9
$DIMBLK2
  1

  9
$DIMSTYLE
  2
Standard
  9
$DIMCLRD
 70
     0
  9
$DIMCLRE
 70
     0
  9
$DIMCLRT
 70
     7
  9
$DIMTFAC
 40
0.75
  9
$DIMGAP
 40
0.0625
  9
$DIMJUST
 70
     0
  9
$DIMSD1
 70
     0
  9
$DIMSD2
 70
     0
  9
$DIMTOLJ
 70
     1
  9
$DIMTZIN
 70
     0
  9
$DIMALTZ
 70
     0
  9
$DIMALTTZ
 70
     0
  9
$DIMUPT
 70
     0
  9
$DIMDEC
 70
     4
  9
$DIMTDEC
 70
     4
  9
$DIMALTU
 70
     2
  9
$DIMALTTD
 70
     2
  9
$DIMTXSTY
  7
Standard
  9
$DIMAUNIT
 70
     0
  9
$DIMADEC
 70
     3
  9
$DIMALTRND
 40
0.0
  9
$DIMAZIN
 70
     0
  9
$DIMDSEP
 70
    46
  9
$DIMATFIT
 70
     3
  9
$DIMFRAC
 70
     1
  9
$DIMLDRBLK
  1

  9
$DIMLUNIT
 70
     5
  9
$DIMLWD
 70
    -2
  9
$DIMLWE
 70
    -2
  9
$DIMTMOVE
 70
     0
  9
$LUNITS
 70
     2
  9
$LUPREC
 70
     4
  9
$SKETCHINC
 40
0.1
  9
$FILLETRAD
 40
0.0
  9
$AUNITS
 70
     0
  9
$AUPREC
 70
     3
  9
$MENU
  1
.
  9
$ELEVATION
 40
0.0
  9
$PELEVATION
 40
0.0
  9
$THICKNESS
 40
0.0
  9
$LIMCHECK
 70
     0
  9
$CHAMFERA
 40
0.5
  9
$CHAMFERB
 40
0.5
  9
$CHAMFERC
 40
1.0
  9
$CHAMFERD
 40
0.0
  9
$SKPOLY
 70
     0
  9
$TDCREATE
 40
2453612.528462824
  9
$TDUCREATE
 40
2453612.778462824
  9
$TDUPDATE
 40
2454075.331860428
  9
$TDUUPDATE
 40
2454075.581860428
  9
$TDINDWG
 40
0.2841024421
  9
$TDUSRTIMER
 40
0.2841013079
  9
$USRTIMER
 70
     1
  9
$ANGBASE
 50
0.0
  9
$ANGDIR
 70
     0
  9
$PDMODE
 70
    33
  9
$PDSIZE
 40
0.016
  9
$PLINEWID
 40
0.0
  9
$SPLFRAME
 70
     0
  9
$SPLINETYPE
 70
     6
  9
$SPLINESEGS
 70
     8
  9
$HANDSEED
  5
EF10
  9
$SURFTAB1
 70
     6
  9
$SURFTAB2
 70
     6
  9
$SURFTYPE
 70
     6
  9
$SURFU
 70
     6
  9
$SURFV
 70
     6
  9
$UCSBASE
  2

  9
$UCSNAME
  2

  9
$UCSORG
 10
0.0
 20
0.0
 30
0.0
  9
$UCSXDIR
 10
1.0
 20
0.0
 30
0.0
  9
$UCSYDIR
 10
0.0
 20
1.0
 30
0.0
  9
$UCSORTHOREF
  2

  9
$UCSORTHOVIEW
 70
     0
  9
$UCSORGTOP
 10
0.0
 20
0.0
 30
0.0
  9
$UCSORGBOTTOM
 10
0.0
 20
0.0
 30
0.0
  9
$UCSORGLEFT
 10
0.0
 20
0.0
 30
0.0
  9
$UCSORGRIGHT
 10
0.0
 20
0.0
 30
0.0
  9
$UCSORGFRONT
 10
0.0
 20
0.0
 30
0.0
  9
$UCSORGBACK
 10
0.0
 20
0.0
 30
0.0
  9
$PUCSBASE
  2

  9
$PUCSNAME
  2

  9
$PUCSORG
 10
0.0
 20
0.0
 30
0.0
  9
$PUCSXDIR
 10
1.0
 20
0.0
 30
0.0
  9
$PUCSYDIR
 10
0.0
 20
1.0
 30
0.0
  9
$PUCSORTHOREF
  2

  9
$PUCSORTHOVIEW
 70
     0
  9
$PUCSORGTOP
 10
0.0
 20
0.0
 30
0.0
  9
$PUCSORGBOTTOM
 10
0.0
 20
0.0
 30
0.0
  9
$PUCSORGLEFT
 10
0.0
 20
0.0
 30
0.0
  9
$PUCSORGRIGHT
 10
0.0
 20
0.0
 30
0.0
  9
$PUCSORGFRONT
 10
0.0
 20
0.0
 30
0.0
  9
$PUCSORGBACK
 10
0.0
 20
0.0
 30
0.0
  9
$USERI1
 70
     0
  9
$USERI2
 70
     0
  9
$USERI3
 70
     0
  9
$USERI4
 70
     0
  9
$USERI5
 70
     0
  9
$USERR1
 40
1.0
  9
$USERR2
 40
0.0
  9
$USERR3
 40
22.0
  9
$USERR4
 40
0.0
  9
$USERR5
 40
0.0
  9
$WORLDVIEW
 70
     1
  9
$SHADEDGE
 70
     3
  9
$SHADEDIF
 70
    70
  9
$TILEMODE
 70
     1
  9
$MAXACTVP
 70
    64
  9
$PINSBASE
 10
0.0
 20
0.0
 30
0.0
  9
$PLIMCHECK
 70
     0
  9
$PEXTMIN
 10
0.0045044512824113
 20
0.0025467006634372
 30
0.0
  9
$PEXTMAX
 10
7.932995314148659
 20
10.43495255003633
 30
0.0
  9
$PLIMMIN
 10
-0.2812499887361301
 20
-0.2812502515597606
  9
$PLIMMAX
 10
8.218749770967976
 20
10.71874950814434
  9
$UNITMODE
 70
     0
  9
$VISRETAIN
 70
     1
  9
$PLINEGEN
 70
     0
  9
$PSLTSCALE
 70
     1
  9
$TREEDEPTH
 70
  3020
  9
$CMLSTYLE
  2
Standard
  9
$CMLJUST
 70
     0
  9
$CMLSCALE
 40
1.0
  9
$PROXYGRAPHICS
 70
     1
  9
$MEASUREMENT
 70
     0
  9
$CELWEIGHT
370
    -1
  9
$ENDCAPS
280
     0
  9
$JOINSTYLE
280
     0
  9
$LWDISPLAY
290
     0
  9
$INSUNITS
 70
     1
  9
$HYPERLINKBASE
  1

  9
$STYLESHEET
  1

  9
$XEDIT
290
     1
  9
$CEPSNTYPE
380
     0
  9
$PSTYLEMODE
290
     1
  9
$FINGERPRINTGUID
  2
{FDEAD576-A652-11D2-9A35-0060089B3A3F}
  9
$VERSIONGUID
  2
{3CF6AF21-2F98-4FFF-9FC9-21A4C45B31D4}
  9
$EXTNAMES
290
     1
  9
$PSVPSCALE
 40
0.0
  9
$OLESTARTUP
290
     0
  0
ENDSEC
  0
SECTION
  2
CLASSES
  0
CLASS
  1
ACDBDICTIONARYWDFLT
  2
AcDbDictionaryWithDefault
  3
ObjectDBX Classes
 90
        0
280
     0
281
     0
  0
CLASS
  1
ACDBPLACEHOLDER
  2
AcDbPlaceHolder
  3
ObjectDBX Classes
 90
        0
280
     0
281
     0
  0
CLASS
  1
LAYOUT
  2
AcDbLayout
  3
ObjectDBX Classes
 90
        0
280
     0
281
     0
  0
CLASS
  1
PLOTSETTINGS
  2
AcDbPlotSettings
  3
ObjectDBX Classes
 90
        0
280
     0
281
     0
  0
CLASS
  1
AMLOADER
  2
AMLoader
  3
AMAcad
 90
        0
280
     0
281
     0
  0
CLASS
  1
DICTIONARYVAR
  2
AcDbDictionaryVar
  3
ObjectDBX Classes
 90
        0
280
     0
281
     0
  0
CLASS
  1
SORTENTSTABLE
  2
AcDbSortentsTable
  3
ObjectDBX Classes
 90
        0
280
     0
281
     0
  0
CLASS
  1
DIMASSOC
  2
AcDbDimAssoc
  3
"AcDbDimAssoc|Product Desc:     AcDim ARX App For Dimension|Company:          Autodesk, Inc.|WEB Address:      www.autodesk.com"
 90
    32768
280
     0
281
     0
  0
ENDSEC
  0
SECTION
  2
TABLES
  0
TABLE
  2
VPORT
  5
8
330
0
100
AcDbSymbolTable
 70
     2
  0
VPORT
  5
EEF7
330
8
100
AcDbSymbolTableRecord
100
AcDbViewportTableRecord
  2
*Active
 70
     0
 10
0.0
 20
0.0
 11
1.0
 21
1.0
 12
31.68425794346312
 22
17.42849175629472
 13
0.0
 23
0.0
 14
0.125
 24
0.125
 15
0.5
 25
0.5
 16
0.0
 26
0.0
 36
1.0
 17
0.0
 27
0.0
 37
0.0
 40
37.3877083796331
 41
1.606998654104979
 42
50.0
 43
0.0
 44
0.0
 50
0.0
 51
0.0
 71
     0
 72
  5000
 73
     1
 74
     0
 75
     0
 76
     0
 77
     0
 78
     0
281
     0
 65
     1
110
0.0
120
0.0
130
0.0
111
1.0
121
0.0
131
0.0
112
0.0
122
1.0
132
0.0
 79
     0
146
0.0
  0
ENDTAB
  0
TABLE
  2
LTYPE
  5
5
330
0
100
AcDbSymbolTable
 70
     1
  0
LTYPE
  5
14
330
5
100
AcDbSymbolTableRecord
100
AcDbLinetypeTableRecord
  2
ByBlock
 70
     0
  3

 72
    65
 73
     0
 40
0.0
  0
LTYPE
  5
15
330
5
100
AcDbSymbolTableRecord
100
AcDbLinetypeTableRecord
  2
ByLayer
 70
     0
  3

 72
    65
 73
     0
 40
0.0
  0
LTYPE
  5
16
330
5
100
AcDbSymbolTableRecord
100
AcDbLinetypeTableRecord
  2
Continuous
 70
     0
  3
Solid line
 72
    65
 73
     0
 40
0.0
  0
ENDTAB
  0
TABLE
  2
LAYER
  5
2
102
{ACAD_XDICTIONARY
360
E64E
102
}
330
0
100
AcDbSymbolTable
 70
     4
  0
LAYER
  5
10
330
2
100
AcDbSymbolTableRecord
100
AcDbLayerTableRecord
  2
0
 70
     0
 62
     7
  6
Continuous
370
    -3
390
F
  0
LAYER
  5
A7
330
2
100
AcDbSymbolTableRecord
100
AcDbLayerTableRecord
  2
Pel_Defpoints
 70
     0
 62
     7
  6
Continuous
290
     0
370
    -3
390
F
  0
LAYER
  5
B2
330
2
100
AcDbSymbolTableRecord
100
AcDbLayerTableRecord
  2
Pel_TXT
 70
     0
 62
   255
  6
Continuous
370
    -3
390
F
  0
LAYER
  5
E64A
330
2
100
AcDbSymbolTableRecord
100
AcDbLayerTableRecord
  2
Pel_Clad
 70
     0
 62
    63
  6
Continuous
370
    -3
390
F
  0
ENDTAB
  0
TABLE
  2
STYLE
  5
3
330
0
100
AcDbSymbolTable
 70
     1
  0
STYLE
  5
11
330
3
100
AcDbSymbolTableRecord
100
AcDbTextStyleTableRecord
  2
Standard
 70
     0
 40
0.0
 41
1.0
 50
0.0
 71
     0
 42
0.2
  3
ARIAL.TTF
  4

1001
ACAD
1000
Arial
1071
       34
  0
ENDTAB
  0
TABLE
  2
VIEW
  5
6
330
0
100
AcDbSymbolTable
 70
     1
  0
VIEW
  5
D380
330
6
100
AcDbSymbolTableRecord
100
AcDbViewTableRecord
  2
org
 70
     0
 40
27.15590980939018
 10
6.083222462400622
 20
8.786030387711486
 41
41.12824514700171
 11
0.0
 21
0.0
 31
1.0
 12
0.0
 22
0.0
 32
0.0
 42
50.0
 43
0.0
 44
0.0
 50
0.0
 71
     0
281
     0
 72
     1
110
0.0
120
0.0
130
0.0
111
1.0
121
0.0
131
0.0
112
0.0
122
1.0
132
0.0
 79
     0
146
0.0
  0
ENDTAB
  0
TABLE
  2
UCS
  5
7
330
0
100
AcDbSymbolTable
 70
     0
  0
ENDTAB
  0
TABLE
  2
APPID
  5
9
330
0
100
AcDbSymbolTable
 70
    14
  0
APPID
  5
12
330
9
100
AcDbSymbolTableRecord
100
AcDbRegAppTableRecord
  2
ACAD
 70
     0
  0
APPID
  5
1B8
330
9
100
AcDbSymbolTableRecord
100
AcDbRegAppTableRecord
  2
AMAcad
 70
     0
  0
APPID
  5
FBF
330
9
100
AcDbSymbolTableRecord
100
AcDbRegAppTableRecord
  2
ADE
 70
     0
  0
APPID
  5
1010
330
9
100
AcDbSymbolTableRecord
100
AcDbRegAppTableRecord
  2
DCO15
 70
     0
  0
APPID
  5
2B00
330
9
100
AcDbSymbolTableRecord
100
AcDbRegAppTableRecord
  2
ADCADD_ZZ
 70
     0
  0
APPID
  5
2B01
330
9
100
AcDbSymbolTableRecord
100
AcDbRegAppTableRecord
  2
SDSK_PMN
 70
     0
  0
APPID
  5
D27F
330
9
100
AcDbSymbolTableRecord
100
AcDbRegAppTableRecord
  2
GENIUS_GENODEF_13
 70
     0
  0
APPID
  5
D280
330
9
100
AcDbSymbolTableRecord
100
AcDbRegAppTableRecord
  2
GENIUS_GENOBJ-N-FIL_13
 70
     0
  0
APPID
  5
D281
330
9
100
AcDbSymbolTableRecord
100
AcDbRegAppTableRecord
  2
GENIUS_GENDTOL_13
 70
     0
  0
APPID
  5
D282
330
9
100
AcDbSymbolTableRecord
100
AcDbRegAppTableRecord
  2
AVE_RENDER
 70
     0
  0
APPID
  5
D283
330
9
100
AcDbSymbolTableRecord
100
AcDbRegAppTableRecord
  2
AVE_ENTITY_MATERIAL
 70
     0
  0
APPID
  5
D284
330
9
100
AcDbSymbolTableRecord
100
AcDbRegAppTableRecord
  2
AVE_FINISH
 70
     0
  0
APPID
  5
D285
330
9
100
AcDbSymbolTableRecord
100
AcDbRegAppTableRecord
  2
AVE_MATERIAL
 70
     0
  0
APPID
  5
D286
330
9
100
AcDbSymbolTableRecord
100
AcDbRegAppTableRecord
  2
AVE_GLOBAL
 70
     0
  0
ENDTAB
  0
TABLE
  2
DIMSTYLE
  5
A
330
0
100
AcDbSymbolTable
 70
     1
100
AcDbDimStyleTable
 71
     1
340
E867
  0
DIMSTYLE
105
E867
330
A
100
AcDbSymbolTableRecord
100
AcDbDimStyleTableRecord
  2
Standard
 70
     0
 41
0.125
 43
0.0625
 44
0.0625
 73
     0
 74
     0
 77
     1
 78
     2
140
0.09375
146
0.75
147
0.0625
178
     7
179
     3
276
     1
277
     5
279
     2
340
11
  0
ENDTAB
  0
TABLE
  2
BLOCK_RECORD
  5
1
330
0
100
AcDbSymbolTable
 70
    34
  0
BLOCK_RECORD
  5
1F
102
{ACAD_XDICTIONARY
360
D9A1
102
}
330
1
100
AcDbSymbolTableRecord
100
AcDbBlockTableRecord
  2
*Model_Space
340
22
  0
BLOCK_RECORD
  5
CBD2
330
1
100
AcDbSymbolTableRecord
100
AcDbBlockTableRecord
  2
*Paper_Space
340
CBD3
  0
BLOCK_RECORD
  5
E1EB
102
{ACAD_XDICTIONARY
360
EA09
102
}
330
1
100
AcDbSymbolTableRecord
100
AcDbBlockTableRecord
  2
49A1M108
340
0
102
{BLKREFS
331
E40A
102
}
  0
BLOCK_RECORD
  5
E1FC
102
{ACAD_XDICTIONARY
360
EA71
102
}
330
1
100
AcDbSymbolTableRecord
100
AcDbBlockTableRecord
  2
49A1M118
340
0
102
{BLKREFS
331
E409
102
}
  0
BLOCK_RECORD
  5
E20D
102
{ACAD_XDICTIONARY
360
EA31
102
}
330
1
100
AcDbSymbolTableRecord
100
AcDbBlockTableRecord
  2
49A1M116
340
0
102
{BLKREFS
331
E405
102
}
  0
BLOCK_RECORD
  5
E222
102
{ACAD_XDICTIONARY
360
EA51
102
}
330
1
100
AcDbSymbolTableRecord
100
AcDbBlockTableRecord
  2
49A1M117
340
0
102
{BLKREFS
331
E404
102
}
  0
BLOCK_RECORD
  5
E233
102
{ACAD_XDICTIONARY
360
EACF
102
}
330
1
100
AcDbSymbolTableRecord
100
AcDbBlockTableRecord
  2
49A1M120
340
0
102
{BLKREFS
331
E403
102
}
  0
BLOCK_RECORD
  5
E24C
102
{ACAD_XDICTIONARY
360
EAF7
102
}
330
1
100
AcDbSymbolTableRecord
100
AcDbBlockTableRecord
  2
49A1M121
340
0
102
{BLKREFS
331
E3FD
102
}
  0
BLOCK_RECORD
  5
E261
102
{ACAD_XDICTIONARY
360
EB0F
102
}
330
1
100
AcDbSymbolTableRecord
100
AcDbBlockTableRecord
  2
49A1M122
340
0
102
{BLKREFS
331
E3FC
102
}
  0
BLOCK_RECORD
  5
E26E
102
{ACAD_XDICTIONARY
360
EB47
102
}
330
1
100
AcDbSymbolTableRecord
100
AcDbBlockTableRecord
  2
49A1M123
340
0
102
{BLKREFS
331
E3FB
102
}
  0
BLOCK_RECORD
  5
E28B
102
{ACAD_XDICTIONARY
360
EB77
102
}
330
1
100
AcDbSymbolTableRecord
100
AcDbBlockTableRecord
  2
49A1M124
340
0
102
{BLKREFS
331
E3FA
102
}
  0
BLOCK_RECORD
  5
E2A4
102
{ACAD_XDICTIONARY
360
EBE7
102
}
330
1
100
AcDbSymbolTableRecord
100
AcDbBlockTableRecord
  2
49A1M126
340
0
102
{BLKREFS
331
E3F9
102
}
  0
BLOCK_RECORD
  5
E2BD
102
{ACAD_XDICTIONARY
360
EBB7
102
}
330
1
100
AcDbSymbolTableRecord
100
AcDbBlockTableRecord
  2
49A1M125
340
0
102
{BLKREFS
331
E3F7
102
}
  0
BLOCK_RECORD
  5
E2DE
102
{ACAD_XDICTIONARY
360
EA9F
102
}
330
1
100
AcDbSymbolTableRecord
100
AcDbBlockTableRecord
  2
49A1M119
340
0
102
{BLKREFS
331
E3F5
102
}
  0
BLOCK_RECORD
  5
E2F6
102
{ACAD_XDICTIONARY
360
E9E9
102
}
330
1
100
AcDbSymbolTableRecord
100
AcDbBlockTableRecord
  2
49A1M107
340
0
102
{BLKREFS
331
E3F3
102
}
  0
BLOCK_RECORD
  5
E303
102
{ACAD_XDICTIONARY
360
EC17
102
}
330
1
100
AcDbSymbolTableRecord
100
AcDbBlockTableRecord
  2
49A1M127
340
0
102
{BLKREFS
331
E3EC
102
}
  0
BLOCK_RECORD
  5
E31C
102
{ACAD_XDICTIONARY
360
EC2F
102
}
330
1
100
AcDbSymbolTableRecord
100
AcDbBlockTableRecord
  2
49A1M128
340
0
102
{BLKREFS
331
E3EB
102
}
  0
BLOCK_RECORD
  5
E329
102
{ACAD_XDICTIONARY
360
EC57
102
}
330
1
100
AcDbSymbolTableRecord
100
AcDbBlockTableRecord
  2
49A1M130
340
0
102
{BLKREFS
331
E3EA
102
}
  0
BLOCK_RECORD
  5
E33E
102
{ACAD_XDICTIONARY
360
EC87
102
}
330
1
100
AcDbSymbolTableRecord
100
AcDbBlockTableRecord
  2
49A1M131
340
0
102
{BLKREFS
331
E3E9
102
}
  0
BLOCK_RECORD
  5
E357
102
{ACAD_XDICTIONARY
360
E5E9
102
}
330
1
100
AcDbSymbolTableRecord
100
AcDbBlockTableRecord
  2
49A1M132
340
0
102
{BLKREFS
331
E3E8
102
}
  0
BLOCK_RECORD
  5
E36C
102
{ACAD_XDICTIONARY
360
ECEF
102
}
330
1
100
AcDbSymbolTableRecord
100
AcDbBlockTableRecord
  2
49A1M133
340
0
102
{BLKREFS
331
E3E7
102
}
  0
BLOCK_RECORD
  5
E385
102
{ACAD_XDICTIONARY
360
ECBF
102
}
330
1
100
AcDbSymbolTableRecord
100
AcDbBlockTableRecord
  2
49A1M134
340
0
102
{BLKREFS
331
E3E5
102
}
  0
BLOCK_RECORD
  5
E3A2
102
{ACAD_XDICTIONARY
360
E5C1
102
}
330
1
100
AcDbSymbolTableRecord
100
AcDbBlockTableRecord
  2
49A1M129
340
0
102
{BLKREFS
331
E3E3
102
}
  0
BLOCK_RECORD
  5
ED5C
102
{ACAD_XDICTIONARY
360
ED5D
102
}
330
1
100
AcDbSymbolTableRecord
100
AcDbBlockTableRecord
  2
49A1M100
340
0
102
{BLKREFS
331
EEC7
102
}
  0
BLOCK_RECORD
  5
ED75
102
{ACAD_XDICTIONARY
360
ED76
102
}
330
1
100
AcDbSymbolTableRecord
100
AcDbBlockTableRecord
  2
49A1M103
340
0
102
{BLKREFS
331
EEC8
102
}
  0
BLOCK_RECORD
  5
ED92
102
{ACAD_XDICTIONARY
360
ED93
102
}
330
1
100
AcDbSymbolTableRecord
100
AcDbBlockTableRecord
  2
49A1M104
340
0
102
{BLKREFS
331
EEC9
102
}
  0
BLOCK_RECORD
  5
EDAF
102
{ACAD_XDICTIONARY
360
EDB0
102
}
330
1
100
AcDbSymbolTableRecord
100
AcDbBlockTableRecord
  2
49A1M101
340
0
102
{BLKREFS
331
EECA
102
}
  0
BLOCK_RECORD
  5
EDC2
102
{ACAD_XDICTIONARY
360
EDC3
102
}
330
1
100
AcDbSymbolTableRecord
100
AcDbBlockTableRecord
  2
49A1M102
340
0
102
{BLKREFS
331
EECB
102
}
  0
BLOCK_RECORD
  5
EDDD
102
{ACAD_XDICTIONARY
360
EDDE
102
}
330
1
100
AcDbSymbolTableRecord
100
AcDbBlockTableRecord
  2
49A1M105
340
0
102
{BLKREFS
331
EECC
102
}
  0
BLOCK_RECORD
  5
EDF7
102
{ACAD_XDICTIONARY
360
EDF8
102
}
330
1
100
AcDbSymbolTableRecord
100
AcDbBlockTableRecord
  2
49A1M106
340
0
102
{BLKREFS
331
EECD
102
}
  0
BLOCK_RECORD
  5
EE09
102
{ACAD_XDICTIONARY
360
EE0A
102
}
330
1
100
AcDbSymbolTableRecord
100
AcDbBlockTableRecord
  2
49A1M109
340
0
102
{BLKREFS
331
EECE
102
}
  0
BLOCK_RECORD
  5
EE1F
102
{ACAD_XDICTIONARY
360
EE20
102
}
330
1
100
AcDbSymbolTableRecord
100
AcDbBlockTableRecord
  2
49A1M110
340
0
102
{BLKREFS
331
EECF
102
}
  0
BLOCK_RECORD
  5
EE35
102
{ACAD_XDICTIONARY
360
EE36
102
}
330
1
100
AcDbSymbolTableRecord
100
AcDbBlockTableRecord
  2
49A1M111
340
0
102
{BLKREFS
331
EED0
102
}
  0
BLOCK_RECORD
  5
EE4F
102
{ACAD_XDICTIONARY
360
EE50
102
}
330
1
100
AcDbSymbolTableRecord
100
AcDbBlockTableRecord
  2
49A1M112
340
0
102
{BLKREFS
331
EED1
102
}
  0
BLOCK_RECORD
  5
EE69
102
{ACAD_XDICTIONARY
360
EE6A
102
}
330
1
100
AcDbSymbolTableRecord
100
AcDbBlockTableRecord
  2
49A1M114
340
0
102
{BLKREFS
331
EED2
102
}
  0
BLOCK_RECORD
  5
EE7B
102
{ACAD_XDICTIONARY
360
EE7C
102
}
330
1
100
AcDbSymbolTableRecord
100
AcDbBlockTableRecord
  2
49A1M115
340
0
102
{BLKREFS
331
EED3
102
}
  0
ENDTAB
  0
ENDSEC
  0
SECTION
  2
BLOCKS
  0
BLOCK
  5
20
330
1F
100
AcDbEntity
  8
0
100
AcDbBlockBegin
  2
*Model_Space
 70
     0
 10
0.0
 20
0.0
 30
0.0
  3
*Model_Space
  1

  0
ENDBLK
  5
21
330
1F
100
AcDbEntity
  8
0
100
AcDbBlockEnd
  0
BLOCK
  5
CBD4
330
CBD2
100
AcDbEntity
 67
     1
  8
0
100
AcDbBlockBegin
  2
*Paper_Space
 70
     0
 10
0.0
 20
0.0
 30
0.0
  3
*Paper_Space
  1

  0
ENDBLK
  5
CBD5
330
CBD2
100
AcDbEntity
 67
     1
  8
0
100
AcDbBlockEnd
  0
BLOCK
  5
E1EC
330
E1EB
100
AcDbEntity
  8
0
100
AcDbBlockBegin
  2
49A1M108
 70
     0
 10
0.0
 20
0.0
 30
0.0
  3
49A1M108
  1

  0
POLYLINE
  5
E1ED
330
E1EB
100
AcDbEntity
  8
Pel_Clad
  6
Continuous
100
AcDb2dPolyline
 66
     1
 10
0.0
 20
0.0
 30
0.0
 70
     1
  0
VERTEX
  5
E9FC
330
E1ED
100
AcDbEntity
  8
Pel_Clad
  6
Continuous
100
AcDbVertex
100
AcDb2dVertex
 10
3.289397824486086
 20
0.0500000100000051
 30
0.0
  0
VERTEX
  5
E9FD
330
E1ED
100
AcDbEntity
  8
Pel_Clad
  6
Continuous
100
AcDbVertex
100
AcDb2dVertex
 10
0.0
 20
0.0500000100000051
 30
0.0
 42
0.4142135623730951
  0
VERTEX
  5
E9FE
330
E1ED
100
AcDbEntity
  8
Pel_Clad
  6
Continuous
100
AcDbVertex
100
AcDb2dVertex
 10
-0.1319149199999856
 20
-0.0819149099999948
 30
0.0
  0
VERTEX
  5
E9FF
330
E1ED
100
AcDbEntity
  8
Pel_Clad
  6
Continuous
100
AcDbVertex
100
AcDb2dVertex
 10
-0.131914920000014
 20
-1.537844875215411
 30
0.0
  0
VERTEX
  5
EA00
330
E1ED
100
AcDbEntity
  8
Pel_Clad
  6
Continuous
100
AcDbVertex
100
AcDb2dVertex
 10
-0.0819149100000232
 20
-1.537844875215411
 30
0.0
  0
VERTEX
  5
EA01
330
E1ED
100
AcDbEntity
  8
Pel_Clad
  6
Continuous
100
AcDbVertex
100
AcDb2dVertex
 10
-0.0819149099999948
 20
-0.0819149099999948
 30
0.0
 42
-0.4142135623730951
  0
VERTEX
  5
EA02
330
E1ED
100
AcDbEntity
  8
Pel_Clad
  6
Continuous
100
AcDbVertex
100
AcDb2dVertex
 10
0.0
 20
0.0
 30
0.0
  0
VERTEX
  5
EA03
330
E1ED
100
AcDbEntity
  8
Pel_Clad
  6
Continuous
100
AcDbVertex
100
AcDb2dVertex
 10
3.289397824486086
 20
0.0
 30
0.0
 42
0.4142135623730951
  0
VERTEX
  5
EA04
330
E1ED
100
AcDbEntity
  8
Pel_Clad
  6
Continuous
100
AcDbVertex
100
AcDb2dVertex
 10
3.421312744486072
 20
0.131914920000014
 30
0.0
  0
VERTEX
  5
EA05
330
E1ED
100
AcDbEntity
  8
Pel_Clad
  6
Continuous
100
AcDbVertex
100
AcDb2dVertex
 10
3.421312744486072
 20
0.581915010000003
 30
0.0
  0
VERTEX
  5
EA06
330
E1ED
100
AcDbEntity
  8
Pel_Clad
  6
Continuous
100
AcDbVertex
100
AcDb2dVertex
 10
3.37131273448608
 20
0.581915010000003
 30
0.0
  0
VERTEX
  5
EA07
330
E1ED
100
AcDbEntity
  8
Pel_Clad
  6
Continuous
100
AcDbVertex
100
AcDb2dVertex
 10
3.37131273448608
 20
0.131914920000014
 30
0.0
 42
-0.4142135623730951
  0
SEQEND
  5
EA08
330
E1ED
100
AcDbEntity
  8
Pel_Clad
  6
Continuous
  0
ENDBLK
  5
E1FB
330
E1EB
100
AcDbEntity
  8
0
100
AcDbBlockEnd
  0
BLOCK
  5
E1FD
330
E1FC
100
AcDbEntity
  8
0
100
AcDbBlockBegin
  2
49A1M118
 70
     0
 10
0.0
 20
0.0
 30
0.0
  3
49A1M118
  1

  0
POLYLINE
  5
E1FE
330
E1FC
100
AcDbEntity
  8
Pel_Clad
  6
Continuous
100
AcDb2dPolyline
 66
     1
 10
0.0
 20
0.0
 30
0.0
 70
     1
  0
VERTEX
  5
EA64
330
E1FE
100
AcDbEntity
  8
Pel_Clad
  6
Continuous
100
AcDbVertex
100
AcDb2dVertex
 10
5.0
 20
0.0500000100000193
 30
0.0
  0
VERTEX
  5
EA65
330
E1FE
100
AcDbEntity
  8
Pel_Clad
  6
Continuous
100
AcDbVertex
100
AcDb2dVertex
 10
0.0
 20
0.0500000100000051
 30
0.0
 42
0.4142135623730951
  0
VERTEX
  5
EA66
330
E1FE
100
AcDbEntity
  8
Pel_Clad
  6
Continuous
100
AcDbVertex
100
AcDb2dVertex
 10
-0.131914920000014
 20
-0.0819149099999948
 30
0.0
  0
VERTEX
  5
EA67
330
E1FE
100
AcDbEntity
  8
Pel_Clad
  6
Continuous
100
AcDbVertex
100
AcDb2dVertex
 10
-0.131914920000014
 20
-1.801085049181878
 30
0.0
 42
-0.1989123673796578
  0
VERTEX
  5
EA68
330
E1FE
100
AcDbEntity
  8
Pel_Clad
  6
Continuous
100
AcDbVertex
100
AcDb2dVertex
 10
-0.1559072416587242
 20
-1.859007637523176
 30
0.0
  0
VERTEX
  5
EA69
330
E1FE
100
AcDbEntity
  8
Pel_Clad
  6
Continuous
100
AcDbVertex
100
AcDb2dVertex
 10
-0.7203998855239604
 20
-2.423500281388399
 30
0.0
  0
VERTEX
  5
EA6A
330
E1FE
100
AcDbEntity
  8
Pel_Clad
  6
Continuous
100
AcDbVertex
100
AcDb2dVertex
 10
-0.6850445393935445
 20
-2.4588556275188
 30
0.0
  0
VERTEX
  5
EA6B
330
E1FE
100
AcDbEntity
  8
Pel_Clad
  6
Continuous
100
AcDbVertex
100
AcDb2dVertex
 10
-0.1205518955283082
 20
-1.894362983653563
 30
0.0
 42
0.1989123673796578
  0
VERTEX
  5
EA6C
330
E1FE
100
AcDbEntity
  8
Pel_Clad
  6
Continuous
100
AcDbVertex
100
AcDb2dVertex
 10
-0.0819149099999948
 20
-1.801085049181878
 30
0.0
  0
VERTEX
  5
EA6D
330
E1FE
100
AcDbEntity
  8
Pel_Clad
  6
Continuous
100
AcDbVertex
100
AcDb2dVertex
 10
-0.0819149099999948
 20
-0.0819149099999948
 30
0.0
 42
-0.4142135623730951
  0
VERTEX
  5
EA6E
330
E1FE
100
AcDbEntity
  8
Pel_Clad
  6
Continuous
100
AcDbVertex
100
AcDb2dVertex
 10
0.0
 20
0.0
 30
0.0
  0
VERTEX
  5
EA6F
330
E1FE
100
AcDbEntity
  8
Pel_Clad
  6
Continuous
100
AcDbVertex
100
AcDb2dVertex
 10
5.0
 20
0.0
 30
0.0
  0
SEQEND
  5
EA70
330
E1FE
100
AcDbEntity
  8
Pel_Clad
  6
Continuous
  0
ENDBLK
  5
E20C
330
E1FC
100
AcDbEntity
  8
0
100
AcDbBlockEnd
  0
BLOCK
  5
E20E
330
E20D
100
AcDbEntity
  8
0
100
AcDbBlockBegin
  2
49A1M116
 70
     0
 10
0.0
 20
0.0
 30
0.0
  3
49A1M116
  1

  0
POLYLINE
  5
E20F
330
E20D
100
AcDbEntity
  8
Pel_Clad
  6
Continuous
100
AcDb2dPolyline
 66
     1
 10
0.0
 20
0.0
 30
0.0
 70
     1
  0
VERTEX
  5
EA20
330
E20F
100
AcDbEntity
  8
Pel_Clad
  6
Continuous
100
AcDbVertex
100
AcDb2dVertex
 10
-0.0819149099999948
 20
-1.327792365232596
 30
0.0
 42
-0.1989123673796587
  0
VERTEX
  5
EA21
330
E20F
100
AcDbEntity
  8
Pel_Clad
  6
Continuous
100
AcDbVertex
100
AcDb2dVertex
 10
-0.1205518955283367
 20
-1.421070299704267
 30
0.0
  0
VERTEX
  5
EA22
330
E20F
100
AcDbEntity
  8
Pel_Clad
  6
Continuous
100
AcDbVertex
100
AcDb2dVertex
 10
-0.341522764649131
 20
-1.642041168825065
 30
0.0
  0
VERTEX
  5
EA23
330
E20F
100
AcDbEntity
  8
Pel_Clad
  6
Continuous
100
AcDbVertex
100
AcDb2dVertex
 10
-0.3768781107795185
 20
-1.606685822694679
 30
0.0
  0
VERTEX
  5
EA24
330
E20F
100
AcDbEntity
  8
Pel_Clad
  6
Continuous
100
AcDbVertex
100
AcDb2dVertex
 10
-0.1559072416587242
 20
-1.38571495357388
 30
0.0
 42
0.1989123673796587
  0
VERTEX
  5
EA25
330
E20F
100
AcDbEntity
  8
Pel_Clad
  6
Continuous
100
AcDbVertex
100
AcDb2dVertex
 10
-0.131914920000014
 20
-1.327792365232596
 30
0.0
  0
VERTEX
  5
EA26
330
E20F
100
AcDbEntity
  8
Pel_Clad
  6
Continuous
100
AcDbVertex
100
AcDb2dVertex
 10
-0.131914920000014
 20
-0.0819149099999948
 30
0.0
 42
-0.4142135623730951
  0
VERTEX
  5
EA27
330
E20F
100
AcDbEntity
  8
Pel_Clad
  6
Continuous
100
AcDbVertex
100
AcDb2dVertex
 10
0.0
 20
0.0500000099999909
 30
0.0
  0
VERTEX
  5
EA28
330
E20F
100
AcDbEntity
  8
Pel_Clad
  6
Continuous
100
AcDbVertex
100
AcDb2dVertex
 10
4.918085090000004
 20
0.0500000099999909
 30
0.0
 42
0.4142135623730951
  0
VERTEX
  5
EA29
330
E20F
100
AcDbEntity
  8
Pel_Clad
  6
Continuous
100
AcDbVertex
100
AcDb2dVertex
 10
5.0
 20
0.1319149199999856
 30
0.0
  0
VERTEX
  5
EA2A
330
E20F
100
AcDbEntity
  8
Pel_Clad
  6
Continuous
100
AcDbVertex
100
AcDb2dVertex
 10
5.0
 20
0.5500000099999909
 30
0.0
  0
VERTEX
  5
EA2B
330
E20F
100
AcDbEntity
  8
Pel_Clad
  6
Continuous
100
AcDbVertex
100
AcDb2dVertex
 10
5.050000010000018
 20
0.5500000099999909
 30
0.0
  0
VERTEX
  5
EA2C
330
E20F
100
AcDbEntity
  8
Pel_Clad
  6
Continuous
100
AcDbVertex
100
AcDb2dVertex
 10
5.050000010000018
 20
0.1319149199999856
 30
0.0
 42
-0.4142135623730951
  0
VERTEX
  5
EA2D
330
E20F
100
AcDbEntity
  8
Pel_Clad
  6
Continuous
100
AcDbVertex
100
AcDb2dVertex
 10
4.918085090000004
 20
0.0
 30
0.0
  0
VERTEX
  5
EA2E
330
E20F
100
AcDbEntity
  8
Pel_Clad
  6
Continuous
100
AcDbVertex
100
AcDb2dVertex
 10
0.0
 20
0.0
 30
0.0
 42
0.4142135623730951
  0
VERTEX
  5
EA2F
330
E20F
100
AcDbEntity
  8
Pel_Clad
  6
Continuous
100
AcDbVertex
100
AcDb2dVertex
 10
-0.0819149099999948
 20
-0.0819149099999948
 30
0.0
  0
SEQEND
  5
EA30
330
E20F
100
AcDbEntity
  8
Pel_Clad
  6
Continuous
  0
ENDBLK
  5
E221
330
E20D
100
AcDbEntity
  8
0
100
AcDbBlockEnd
  0
BLOCK
  5
E223
330
E222
100
AcDbEntity
  8
0
100
AcDbBlockBegin
  2
49A1M117
 70
     0
 10
0.0
 20
0.0
 30
0.0
  3
49A1M117
  1

  0
POLYLINE
  5
E224
330
E222
100
AcDbEntity
  8
Pel_Clad
  6
Continuous
100
AcDb2dPolyline
 66
     1
 10
0.0
 20
0.0
 30
0.0
 70
     1
  0
VERTEX
  5
EA44
330
E224
100
AcDbEntity
  8
Pel_Clad
  6
Continuous
100
AcDbVertex
100
AcDb2dVertex
 10
-0.0579225883412846
 20
-0.0239923216587386
 30
0.0
  0
VERTEX
  5
EA45
330
E224
100
AcDbEntity
  8
Pel_Clad
  6
Continuous
100
AcDbVertex
100
AcDb2dVertex
 10
-0.830201839590984
 20
-0.7962715729084096
 30
0.0
  0
VERTEX
  5
EA46
330
E224
100
AcDbEntity
  8
Pel_Clad
  6
Continuous
100
AcDbVertex
100
AcDb2dVertex
 10
-0.8655571857213715
 20
-0.7609162267780221
 30
0.0
  0
VERTEX
  5
EA47
330
E224
100
AcDbEntity
  8
Pel_Clad
  6
Continuous
100
AcDbVertex
100
AcDb2dVertex
 10
-0.0932779344716721
 20
0.011363024471649
 30
0.0
 42
-0.1989123673796592
  0
VERTEX
  5
EA48
330
E224
100
AcDbEntity
  8
Pel_Clad
  6
Continuous
100
AcDbVertex
100
AcDb2dVertex
 10
0.0
 20
0.0500000099999909
 30
0.0
  0
VERTEX
  5
EA49
330
E224
100
AcDbEntity
  8
Pel_Clad
  6
Continuous
100
AcDbVertex
100
AcDb2dVertex
 10
4.918085090000004
 20
0.0500000099999909
 30
0.0
 42
0.4142135623730951
  0
VERTEX
  5
EA4A
330
E224
100
AcDbEntity
  8
Pel_Clad
  6
Continuous
100
AcDbVertex
100
AcDb2dVertex
 10
5.0
 20
0.1319149199999856
 30
0.0
  0
VERTEX
  5
EA4B
330
E224
100
AcDbEntity
  8
Pel_Clad
  6
Continuous
100
AcDbVertex
100
AcDb2dVertex
 10
5.0
 20
0.5500000099999909
 30
0.0
  0
VERTEX
  5
EA4C
330
E224
100
AcDbEntity
  8
Pel_Clad
  6
Continuous
100
AcDbVertex
100
AcDb2dVertex
 10
5.05000000999999
 20
0.5500000099999909
 30
0.0
  0
VERTEX
  5
EA4D
330
E224
100
AcDbEntity
  8
Pel_Clad
  6
Continuous
100
AcDbVertex
100
AcDb2dVertex
 10
5.05000000999999
 20
0.1319149199999856
 30
0.0
 42
-0.4142135623730951
  0
VERTEX
  5
EA4E
330
E224
100
AcDbEntity
  8
Pel_Clad
  6
Continuous
100
AcDbVertex
100
AcDb2dVertex
 10
4.918085090000004
 20
-0.0000000000000284
 30
0.0
  0
VERTEX
  5
EA4F
330
E224
100
AcDbEntity
  8
Pel_Clad
  6
Continuous
100
AcDbVertex
100
AcDb2dVertex
 10
0.0
 20
0.0
 30
0.0
 42
0.1989123673796592
  0
SEQEND
  5
EA50
330
E224
100
AcDbEntity
  8
Pel_Clad
  6
Continuous
  0
ENDBLK
  5
E232
330
E222
100
AcDbEntity
  8
0
100
AcDbBlockEnd
  0
BLOCK
  5
E234
330
E233
100
AcDbEntity
  8
0
100
AcDbBlockBegin
  2
49A1M120
 70
     0
 10
0.0
 20
0.0
 30
0.0
  3
49A1M120
  1

  0
POLYLINE
  5
E235
330
E233
100
AcDbEntity
  8
Pel_Clad
  6
Continuous
100
AcDb2dPolyline
 66
     1
 10
0.0
 20
0.0
 30
0.0
 70
     1
  0
VERTEX
  5
EABA
330
E235
100
AcDbEntity
  8
Pel_Clad
  6
Continuous
100
AcDbVertex
100
AcDb2dVertex
 10
-2.405567541768988
 20
-0.5899164156388112
 30
0.0
 42
0.3394542588633759
  0
VERTEX
  5
EABB
330
E235
100
AcDbEntity
  8
Pel_Clad
  6
Continuous
100
AcDbVertex
100
AcDb2dVertex
 10
-2.503340368139816
 20
-0.7173364437396687
 30
0.0
  0
VERTEX
  5
EABC
330
E235
100
AcDbEntity
  8
Pel_Clad
  6
Continuous
100
AcDbVertex
100
AcDb2dVertex
 10
-2.503340368139816
 20
-1.702619304692575
 30
0.0
 42
-0.198912367379658
  0
VERTEX
  5
EABD
330
E235
100
AcDbEntity
  8
Pel_Clad
  6
Continuous
100
AcDbVertex
100
AcDb2dVertex
 10
-2.527332689798526
 20
-1.760541893033874
 30
0.0
  0
VERTEX
  5
EABE
330
E235
100
AcDbEntity
  8
Pel_Clad
  6
Continuous
100
AcDbVertex
100
AcDb2dVertex
 10
-2.74830355891932
 20
-1.981512762154671
 30
0.0
  0
VERTEX
  5
EABF
330
E235
100
AcDbEntity
  8
Pel_Clad
  6
Continuous
100
AcDbVertex
100
AcDb2dVertex
 10
-2.712948212788905
 20
-2.016868108285073
 30
0.0
  0
VERTEX
  5
EAC0
330
E235
100
AcDbEntity
  8
Pel_Clad
  6
Continuous
100
AcDbVertex
100
AcDb2dVertex
 10
-2.491977343668139
 20
-1.795897239164275
 30
0.0
 42
0.198912367379658
  0
VERTEX
  5
EAC1
330
E235
100
AcDbEntity
  8
Pel_Clad
  6
Continuous
100
AcDbVertex
100
AcDb2dVertex
 10
-2.453340358139796
 20
-1.702619304692575
 30
0.0
  0
VERTEX
  5
EAC2
330
E235
100
AcDbEntity
  8
Pel_Clad
  6
Continuous
100
AcDbVertex
100
AcDb2dVertex
 10
-2.453340358139796
 20
-0.7173364437396687
 30
0.0
 42
-0.3394542588633759
  0
VERTEX
  5
EAC3
330
E235
100
AcDbEntity
  8
Pel_Clad
  6
Continuous
100
AcDbVertex
100
AcDb2dVertex
 10
-2.392626586925644
 20
-0.6382127166125146
 30
0.0
  0
VERTEX
  5
EAC4
330
E235
100
AcDbEntity
  8
Pel_Clad
  6
Continuous
100
AcDbVertex
100
AcDb2dVertex
 10
-0.0212011387858695
 20
-0.0027911828728406
 30
0.0
 42
-0.0655434628152382
  0
VERTEX
  5
EAC5
330
E235
100
AcDbEntity
  8
Pel_Clad
  6
Continuous
100
AcDbVertex
100
AcDb2dVertex
 10
0.0
 20
0.0
 30
0.0
  0
VERTEX
  5
EAC6
330
E235
100
AcDbEntity
  8
Pel_Clad
  6
Continuous
100
AcDbVertex
100
AcDb2dVertex
 10
4.918085090000004
 20
0.0
 30
0.0
 42
0.4142135623730951
  0
VERTEX
  5
EAC7
330
E235
100
AcDbEntity
  8
Pel_Clad
  6
Continuous
100
AcDbVertex
100
AcDb2dVertex
 10
5.05000000999999
 20
0.131914920000014
 30
0.0
  0
VERTEX
  5
EAC8
330
E235
100
AcDbEntity
  8
Pel_Clad
  6
Continuous
100
AcDbVertex
100
AcDb2dVertex
 10
5.05000000999999
 20
0.5500000100000051
 30
0.0
  0
VERTEX
  5
EAC9
330
E235
100
AcDbEntity
  8
Pel_Clad
  6
Continuous
100
AcDbVertex
100
AcDb2dVertex
 10
5.0
 20
0.5500000100000051
 30
0.0
  0
VERTEX
  5
EACA
330
E235
100
AcDbEntity
  8
Pel_Clad
  6
Continuous
100
AcDbVertex
100
AcDb2dVertex
 10
5.0
 20
0.131914920000014
 30
0.0
 42
-0.4142135623730951
  0
VERTEX
  5
EACB
330
E235
100
AcDbEntity
  8
Pel_Clad
  6
Continuous
100
AcDbVertex
100
AcDb2dVertex
 10
4.918085090000004
 20
0.0500000100000051
 30
0.0
  0
VERTEX
  5
EACC
330
E235
100
AcDbEntity
  8
Pel_Clad
  6
Continuous
100
AcDbVertex
100
AcDb2dVertex
 10
0.0
 20
0.0500000100000193
 30
0.0
 42
0.0655434628152382
  0
VERTEX
  5
EACD
330
E235
100
AcDbEntity
  8
Pel_Clad
  6
Continuous
100
AcDbVertex
100
AcDb2dVertex
 10
-0.0341420936291854
 20
0.0455051181008628
 30
0.0
  0
SEQEND
  5
EACE
330
E235
100
AcDbEntity
  8
Pel_Clad
  6
Continuous
  0
ENDBLK
  5
E24B
330
E233
100
AcDbEntity
  8
0
100
AcDbBlockEnd
  0
BLOCK
  5
E24D
330
E24C
100
AcDbEntity
  8
0
100
AcDbBlockBegin
  2
49A1M121
 70
     0
 10
0.0
 20
0.0
 30
0.0
  3
49A1M121
  1

  0
POLYLINE
  5
E24E
330
E24C
100
AcDbEntity
  8
Pel_Clad
  6
Continuous
100
AcDb2dPolyline
 66
     1
 10
0.0
 20
0.0
 30
0.0
 70
     1
  0
VERTEX
  5
EAE6
330
E24E
100
AcDbEntity
  8
Pel_Clad
  6
Continuous
100
AcDbVertex
100
AcDb2dVertex
 10
0.0
 20
0.0500000099999909
 30
0.0
 42
0.06554346281524
  0
VERTEX
  5
EAE7
330
E24E
100
AcDbEntity
  8
Pel_Clad
  6
Continuous
100
AcDbVertex
100
AcDb2dVertex
 10
-0.0542418745560269
 20
0.0428589317408807
 30
0.0
  0
VERTEX
  5
EAE8
330
E24E
100
AcDbEntity
  8
Pel_Clad
  6
Continuous
100
AcDbVertex
100
AcDb2dVertex
 10
-2.498770360754093
 20
-0.6121505020107634
 30
0.0
 42
0.3394542588633739
  0
VERTEX
  5
EAE9
330
E24E
100
AcDbEntity
  8
Pel_Clad
  6
Continuous
100
AcDbVertex
100
AcDb2dVertex
 10
-2.596543187124921
 20
-0.7395705301116209
 30
0.0
  0
VERTEX
  5
EAEA
330
E24E
100
AcDbEntity
  8
Pel_Clad
  6
Continuous
100
AcDbVertex
100
AcDb2dVertex
 10
-2.596543187124921
 20
-1.668248385195965
 30
0.0
 42
-0.1989123673796566
  0
VERTEX
  5
EAEB
330
E24E
100
AcDbEntity
  8
Pel_Clad
  6
Continuous
100
AcDbVertex
100
AcDb2dVertex
 10
-2.620535508783631
 20
-1.726170973537249
 30
0.0
  0
VERTEX
  5
EAEC
330
E24E
100
AcDbEntity
  8
Pel_Clad
  6
Continuous
100
AcDbVertex
100
AcDb2dVertex
 10
-2.841506377904426
 20
-1.947141842658048
 30
0.0
  0
VERTEX
  5
EAED
330
E24E
100
AcDbEntity
  8
Pel_Clad
  6
Continuous
100
AcDbVertex
100
AcDb2dVertex
 10
-2.806151031774039
 20
-1.982497188788464
 30
0.0
  0
VERTEX
  5
EAEE
330
E24E
100
AcDbEntity
  8
Pel_Clad
  6
Continuous
100
AcDbVertex
100
AcDb2dVertex
 10
-2.585180162653244
 20
-1.761526319667652
 30
0.0
 42
0.1989123673796566
  0
VERTEX
  5
EAEF
330
E24E
100
AcDbEntity
  8
Pel_Clad
  6
Continuous
100
AcDbVertex
100
AcDb2dVertex
 10
-2.546543177124901
 20
-1.668248385195965
 30
0.0
  0
VERTEX
  5
EAF0
330
E24E
100
AcDbEntity
  8
Pel_Clad
  6
Continuous
100
AcDbVertex
100
AcDb2dVertex
 10
-2.546543177124901
 20
-0.7395705301116209
 30
0.0
 42
-0.3394542588633739
  0
VERTEX
  5
EAF1
330
E24E
100
AcDbEntity
  8
Pel_Clad
  6
Continuous
100
AcDbVertex
100
AcDb2dVertex
 10
-2.485829405910776
 20
-0.6604468029844952
 30
0.0
  0
VERTEX
  5
EAF2
330
E24E
100
AcDbEntity
  8
Pel_Clad
  6
Continuous
100
AcDbVertex
100
AcDb2dVertex
 10
-0.041300919712711
 20
-0.0054373692328511
 30
0.0
 42
-0.06554346281524
  0
VERTEX
  5
EAF3
330
E24E
100
AcDbEntity
  8
Pel_Clad
  6
Continuous
100
AcDbVertex
100
AcDb2dVertex
 10
0.0
 20
0.0
 30
0.0
  0
VERTEX
  5
EAF4
330
E24E
100
AcDbEntity
  8
Pel_Clad
  6
Continuous
100
AcDbVertex
100
AcDb2dVertex
 10
2.764962742327838
 20
0.0
 30
0.0
  0
VERTEX
  5
EAF5
330
E24E
100
AcDbEntity
  8
Pel_Clad
  6
Continuous
100
AcDbVertex
100
AcDb2dVertex
 10
2.764962742327838
 20
0.0500000099999909
 30
0.0
  0
SEQEND
  5
EAF6
330
E24E
100
AcDbEntity
  8
Pel_Clad
  6
Continuous
  0
ENDBLK
  5
E260
330
E24C
100
AcDbEntity
  8
0
100
AcDbBlockEnd
  0
BLOCK
  5
E262
330
E261
100
AcDbEntity
  8
0
100
AcDbBlockBegin
  2
49A1M122
 70
     0
 10
0.0
 20
0.0
 30
0.0
  3
49A1M122
  1

  0
POLYLINE
  5
E263
330
E261
100
AcDbEntity
  8
Pel_Clad
  6
Continuous
100
AcDb2dPolyline
 66
     1
 10
0.0
 20
0.0
 30
0.0
 70
     1
  0
VERTEX
  5
EB06
330
E263
100
AcDbEntity
  8
Pel_Clad
  6
Continuous
100
AcDbVertex
100
AcDb2dVertex
 10
0.0
 20
0.0500000099999909
 30
0.0
 42
0.0643436792366264
  0
VERTEX
  5
EB07
330
E263
100
AcDbEntity
  8
Pel_Clad
  6
Continuous
100
AcDbVertex
100
AcDb2dVertex
 10
-0.0335327686068467
 20
0.0456668267344185
 30
0.0
  0
VERTEX
  5
EB08
330
E263
100
AcDbEntity
  8
Pel_Clad
  6
Continuous
100
AcDbVertex
100
AcDb2dVertex
 10
-2.625628060709999
 20
-0.6356229398243585
 30
0.0
  0
VERTEX
  5
EB09
330
E263
100
AcDbEntity
  8
Pel_Clad
  6
Continuous
100
AcDbVertex
100
AcDb2dVertex
 10
-2.612918059705805
 20
-0.6839805335866062
 30
0.0
  0
VERTEX
  5
EB0A
330
E263
100
AcDbEntity
  8
Pel_Clad
  6
Continuous
100
AcDbVertex
100
AcDb2dVertex
 10
-0.0208227676026525
 20
-0.0026907670278149
 30
0.0
 42
-0.0643436792366264
  0
VERTEX
  5
EB0B
330
E263
100
AcDbEntity
  8
Pel_Clad
  6
Continuous
100
AcDbVertex
100
AcDb2dVertex
 10
0.0
 20
0.0
 30
0.0
  0
VERTEX
  5
EB0C
330
E263
100
AcDbEntity
  8
Pel_Clad
  6
Continuous
100
AcDbVertex
100
AcDb2dVertex
 10
2.764784685586846
 20
0.0000000000000142
 30
0.0
  0
VERTEX
  5
EB0D
330
E263
100
AcDbEntity
  8
Pel_Clad
  6
Continuous
100
AcDbVertex
100
AcDb2dVertex
 10
2.764784685586846
 20
0.0500000100000051
 30
0.0
  0
SEQEND
  5
EB0E
330
E263
100
AcDbEntity
  8
Pel_Clad
  6
Continuous
  0
ENDBLK
  5
E26D
330
E261
100
AcDbEntity
  8
0
100
AcDbBlockEnd
  0
BLOCK
  5
E26F
330
E26E
100
AcDbEntity
  8
0
100
AcDbBlockBegin
  2
49A1M123
 70
     0
 10
0.0
 20
0.0
 30
0.0
  3
49A1M123
  1

  0
POLYLINE
  5
E270
330
E26E
100
AcDbEntity
  8
Pel_Clad
  6
Continuous
100
AcDb2dPolyline
 66
     1
 10
0.0
 20
0.0
 30
0.0
 70
     1
  0
VERTEX
  5
EB2E
330
E270
100
AcDbEntity
  8
Pel_Clad
  6
Continuous
100
AcDbVertex
100
AcDb2dVertex
 10
5.0
 20
0.5500000099999909
 30
0.0
  0
VERTEX
  5
EB2F
330
E270
100
AcDbEntity
  8
Pel_Clad
  6
Continuous
100
AcDbVertex
100
AcDb2dVertex
 10
5.050000010000018
 20
0.5500000099999909
 30
0.0
  0
VERTEX
  5
EB30
330
E270
100
AcDbEntity
  8
Pel_Clad
  6
Continuous
100
AcDbVertex
100
AcDb2dVertex
 10
5.050000010000018
 20
0.1319149199999856
 30
0.0
 42
-0.4142135623730951
  0
VERTEX
  5
EB31
330
E270
100
AcDbEntity
  8
Pel_Clad
  6
Continuous
100
AcDbVertex
100
AcDb2dVertex
 10
4.918085090000004
 20
0.0
 30
0.0
  0
VERTEX
  5
EB32
330
E270
100
AcDbEntity
  8
Pel_Clad
  6
Continuous
100
AcDbVertex
100
AcDb2dVertex
 10
0.0
 20
0.0
 30
0.0
 42
0.0655434628152388
  0
VERTEX
  5
EB33
330
E270
100
AcDbEntity
  8
Pel_Clad
  6
Continuous
100
AcDbVertex
100
AcDb2dVertex
 10
-0.0212011387858695
 20
-0.0027911828728691
 30
0.0
  0
VERTEX
  5
EB34
330
E270
100
AcDbEntity
  8
Pel_Clad
  6
Continuous
100
AcDbVertex
100
AcDb2dVertex
 10
-2.386043960729749
 20
-0.6364489072392701
 30
0.0
 42
0.3394542588633737
  0
VERTEX
  5
EB35
330
E270
100
AcDbEntity
  8
Pel_Clad
  6
Continuous
100
AcDbVertex
100
AcDb2dVertex
 10
-2.446757731943876
 20
-0.7155726343663959
 30
0.0
  0
VERTEX
  5
EB36
330
E270
100
AcDbEntity
  8
Pel_Clad
  6
Continuous
100
AcDbVertex
100
AcDb2dVertex
 10
-2.446757731943876
 20
-1.702619304692603
 30
0.0
 42
-0.198912367379658
  0
VERTEX
  5
EB37
330
E270
100
AcDbEntity
  8
Pel_Clad
  6
Continuous
100
AcDbVertex
100
AcDb2dVertex
 10
-2.485394717472216
 20
-1.795897239164275
 30
0.0
  0
VERTEX
  5
EB38
330
E270
100
AcDbEntity
  8
Pel_Clad
  6
Continuous
100
AcDbVertex
100
AcDb2dVertex
 10
-2.994511599926528
 20
-2.305014121618586
 30
0.0
 42
1.000000000000007
  0
VERTEX
  5
EB39
330
E270
100
AcDbEntity
  8
Pel_Clad
  6
Continuous
100
AcDbVertex
100
AcDb2dVertex
 10
-2.952085193055336
 20
-2.347440528489779
 30
0.0
  0
VERTEX
  5
EB3A
330
E270
100
AcDbEntity
  8
Pel_Clad
  6
Continuous
100
AcDbVertex
100
AcDb2dVertex
 10
-2.708133353545979
 20
-2.103488688980423
 30
0.0
  0
VERTEX
  5
EB3B
330
E270
100
AcDbEntity
  8
Pel_Clad
  6
Continuous
100
AcDbVertex
100
AcDb2dVertex
 10
-2.672778014486648
 20
-2.138844028039752
 30
0.0
  0
VERTEX
  5
EB3C
330
E270
100
AcDbEntity
  8
Pel_Clad
  6
Continuous
100
AcDbVertex
100
AcDb2dVertex
 10
-2.916729853996008
 20
-2.382795867549108
 30
0.0
 42
-1.000092028482982
  0
VERTEX
  5
EB3D
330
E270
100
AcDbEntity
  8
Pel_Clad
  6
Continuous
100
AcDbVertex
100
AcDb2dVertex
 10
-3.029866946056917
 20
-2.269658775488199
 30
0.0
  0
VERTEX
  5
EB3E
330
E270
100
AcDbEntity
  8
Pel_Clad
  6
Continuous
100
AcDbVertex
100
AcDb2dVertex
 10
-2.520750063602605
 20
-1.760541893033888
 30
0.0
 42
0.1989123673796564
  0
VERTEX
  5
EB3F
330
E270
100
AcDbEntity
  8
Pel_Clad
  6
Continuous
100
AcDbVertex
100
AcDb2dVertex
 10
-2.496757741943893
 20
-1.702619304692603
 30
0.0
  0
VERTEX
  5
EB40
330
E270
100
AcDbEntity
  8
Pel_Clad
  6
Continuous
100
AcDbVertex
100
AcDb2dVertex
 10
-2.496757741943894
 20
-0.7155726343663959
 30
0.0
 42
-0.3394542588633719
  0
VERTEX
  5
EB41
330
E270
100
AcDbEntity
  8
Pel_Clad
  6
Continuous
100
AcDbVertex
100
AcDb2dVertex
 10
-2.398984915573065
 20
-0.5881526062655526
 30
0.0
  0
VERTEX
  5
EB42
330
E270
100
AcDbEntity
  8
Pel_Clad
  6
Continuous
100
AcDbVertex
100
AcDb2dVertex
 10
-0.034142093629157
 20
0.0455051181008486
 30
0.0
 42
-0.0655434628152385
  0
VERTEX
  5
EB43
330
E270
100
AcDbEntity
  8
Pel_Clad
  6
Continuous
100
AcDbVertex
100
AcDb2dVertex
 10
0.0
 20
0.0500000099999909
 30
0.0
  0
VERTEX
  5
EB44
330
E270
100
AcDbEntity
  8
Pel_Clad
  6
Continuous
100
AcDbVertex
100
AcDb2dVertex
 10
4.918085090000004
 20
0.0500000099999909
 30
0.0
 42
0.4142135623730951
  0
VERTEX
  5
EB45
330
E270
100
AcDbEntity
  8
Pel_Clad
  6
Continuous
100
AcDbVertex
100
AcDb2dVertex
 10
5.0
 20
0.1319149199999856
 30
0.0
  0
SEQEND
  5
EB46
330
E270
100
AcDbEntity
  8
Pel_Clad
  6
Continuous
  0
ENDBLK
  5
E28A
330
E26E
100
AcDbEntity
  8
0
100
AcDbBlockEnd
  0
BLOCK
  5
E28C
330
E28B
100
AcDbEntity
  8
0
100
AcDbBlockBegin
  2
49A1M124
 70
     0
 10
0.0
 20
0.0
 30
0.0
  3
49A1M124
  1

  0
POLYLINE
  5
E28D
330
E28B
100
AcDbEntity
  8
Pel_Clad
  6
Continuous
100
AcDb2dPolyline
 66
     1
 10
0.0
 20
0.0
 30
0.0
 70
     1
  0
VERTEX
  5
EB62
330
E28D
100
AcDbEntity
  8
Pel_Clad
  6
Continuous
100
AcDbVertex
100
AcDb2dVertex
 10
-0.6296687779826478
 20
-1.671356397252185
 30
0.0
 42
1.000000000000002
  0
VERTEX
  5
EB63
330
E28D
100
AcDbEntity
  8
Pel_Clad
  6
Continuous
100
AcDbVertex
100
AcDb2dVertex
 10
-0.5872423711114543
 20
-1.713782804123379
 30
0.0
  0
VERTEX
  5
EB64
330
E28D
100
AcDbEntity
  8
Pel_Clad
  6
Continuous
100
AcDbVertex
100
AcDb2dVertex
 10
-0.3432905316020971
 20
-1.469830964614022
 30
0.0
  0
VERTEX
  5
EB65
330
E28D
100
AcDbEntity
  8
Pel_Clad
  6
Continuous
100
AcDbVertex
100
AcDb2dVertex
 10
-0.307935192542768
 20
-1.50518630367335
 30
0.0
  0
VERTEX
  5
EB66
330
E28D
100
AcDbEntity
  8
Pel_Clad
  6
Continuous
100
AcDbVertex
100
AcDb2dVertex
 10
-0.5518870320521252
 20
-1.749138143182707
 30
0.0
 42
-1.000092028482977
  0
VERTEX
  5
EB67
330
E28D
100
AcDbEntity
  8
Pel_Clad
  6
Continuous
100
AcDbVertex
100
AcDb2dVertex
 10
-0.6650241241130371
 20
-1.636001051121798
 30
0.0
  0
VERTEX
  5
EB68
330
E28D
100
AcDbEntity
  8
Pel_Clad
  6
Continuous
100
AcDbVertex
100
AcDb2dVertex
 10
-0.1559072416587242
 20
-1.126884168667487
 30
0.0
 42
0.1989123673796568
  0
VERTEX
  5
EB69
330
E28D
100
AcDbEntity
  8
Pel_Clad
  6
Continuous
100
AcDbVertex
100
AcDb2dVertex
 10
-0.131914920000014
 20
-1.068961580326202
 30
0.0
  0
VERTEX
  5
EB6A
330
E28D
100
AcDbEntity
  8
Pel_Clad
  6
Continuous
100
AcDbVertex
100
AcDb2dVertex
 10
-0.131914920000014
 20
-0.0819149099999948
 30
0.0
 42
-0.4142135623730951
  0
VERTEX
  5
EB6B
330
E28D
100
AcDbEntity
  8
Pel_Clad
  6
Continuous
100
AcDbVertex
100
AcDb2dVertex
 10
0.0
 20
0.0500000100000051
 30
0.0
  0
VERTEX
  5
EB6C
330
E28D
100
AcDbEntity
  8
Pel_Clad
  6
Continuous
100
AcDbVertex
100
AcDb2dVertex
 10
4.918085090000004
 20
0.0500000099999909
 30
0.0
 42
0.4142135623730951
  0
VERTEX
  5
EB6D
330
E28D
100
AcDbEntity
  8
Pel_Clad
  6
Continuous
100
AcDbVertex
100
AcDb2dVertex
 10
5.0
 20
0.1319149199999998
 30
0.0
  0
VERTEX
  5
EB6E
330
E28D
100
AcDbEntity
  8
Pel_Clad
  6
Continuous
100
AcDbVertex
100
AcDb2dVertex
 10
5.0
 20
0.5500000099999909
 30
0.0
  0
VERTEX
  5
EB6F
330
E28D
100
AcDbEntity
  8
Pel_Clad
  6
Continuous
100
AcDbVertex
100
AcDb2dVertex
 10
5.05000000999999
 20
0.5500000099999909
 30
0.0
  0
VERTEX
  5
EB70
330
E28D
100
AcDbEntity
  8
Pel_Clad
  6
Continuous
100
AcDbVertex
100
AcDb2dVertex
 10
5.050000010000018
 20
0.1319149199999998
 30
0.0
 42
-0.4142135623730951
  0
VERTEX
  5
EB71
330
E28D
100
AcDbEntity
  8
Pel_Clad
  6
Continuous
100
AcDbVertex
100
AcDb2dVertex
 10
4.918085090000004
 20
0.0
 30
0.0
  0
VERTEX
  5
EB72
330
E28D
100
AcDbEntity
  8
Pel_Clad
  6
Continuous
100
AcDbVertex
100
AcDb2dVertex
 10
0.0
 20
0.0
 30
0.0
 42
0.4142135623730951
  0
VERTEX
  5
EB73
330
E28D
100
AcDbEntity
  8
Pel_Clad
  6
Continuous
100
AcDbVertex
100
AcDb2dVertex
 10
-0.0819149099999948
 20
-0.0819149099999948
 30
0.0
  0
VERTEX
  5
EB74
330
E28D
100
AcDbEntity
  8
Pel_Clad
  6
Continuous
100
AcDbVertex
100
AcDb2dVertex
 10
-0.0819149099999948
 20
-1.068961580326202
 30
0.0
 42
-0.198912367379658
  0
VERTEX
  5
EB75
330
E28D
100
AcDbEntity
  8
Pel_Clad
  6
Continuous
100
AcDbVertex
100
AcDb2dVertex
 10
-0.1205518955283367
 20
-1.162239514797875
 30
0.0
  0
SEQEND
  5
EB76
330
E28D
100
AcDbEntity
  8
Pel_Clad
  6
Continuous
  0
ENDBLK
  5
E2A3
330
E28B
100
AcDbEntity
  8
0
100
AcDbBlockEnd
  0
BLOCK
  5
E2A5
330
E2A4
100
AcDbEntity
  8
0
100
AcDbBlockBegin
  2
49A1M126
 70
     0
 10
0.0
 20
0.0
 30
0.0
  3
49A1M126
  1

  0
POLYLINE
  5
E2A6
330
E2A4
100
AcDbEntity
  8
Pel_Clad
  6
Continuous
100
AcDb2dPolyline
 66
     1
 10
0.0
 20
0.0
 30
0.0
 70
     1
  0
VERTEX
  5
EBD2
330
E2A6
100
AcDbEntity
  8
Pel_Clad
  6
Continuous
100
AcDbVertex
100
AcDb2dVertex
 10
-2.462615648314738
 20
-2.458617424328365
 30
0.0
  0
VERTEX
  5
EBD3
330
E2A6
100
AcDbEntity
  8
Pel_Clad
  6
Continuous
100
AcDbVertex
100
AcDb2dVertex
 10
-2.462615648314738
 20
-1.471570754002186
 30
0.0
 42
-0.3394542588633754
  0
VERTEX
  5
EBD4
330
E2A6
100
AcDbEntity
  8
Pel_Clad
  6
Continuous
100
AcDbVertex
100
AcDb2dVertex
 10
-2.401901877100583
 20
-1.392447026875031
 30
0.0
  0
VERTEX
  5
EBD5
330
E2A6
100
AcDbEntity
  8
Pel_Clad
  6
Continuous
100
AcDbVertex
100
AcDb2dVertex
 10
-0.0977728263708286
 20
-0.7750575084749018
 30
0.0
 42
0.3394542588633751
  0
VERTEX
  5
EBD6
330
E2A6
100
AcDbEntity
  8
Pel_Clad
  6
Continuous
100
AcDbVertex
100
AcDb2dVertex
 10
0.0
 20
-0.6476374803740442
 30
0.0
  0
VERTEX
  5
EBD7
330
E2A6
100
AcDbEntity
  8
Pel_Clad
  6
Continuous
100
AcDbVertex
100
AcDb2dVertex
 10
0.0
 20
0.0
 30
0.0
  0
VERTEX
  5
EBD8
330
E2A6
100
AcDbEntity
  8
Pel_Clad
  6
Continuous
100
AcDbVertex
100
AcDb2dVertex
 10
-0.0500000100000193
 20
0.0
 30
0.0
  0
VERTEX
  5
EBD9
330
E2A6
100
AcDbEntity
  8
Pel_Clad
  6
Continuous
100
AcDbVertex
100
AcDb2dVertex
 10
-0.0500000100000193
 20
-0.6476374803740442
 30
0.0
 42
-0.3394542588633734
  0
VERTEX
  5
EBDA
330
E2A6
100
AcDbEntity
  8
Pel_Clad
  6
Continuous
100
AcDbVertex
100
AcDb2dVertex
 10
-0.1107137812141445
 20
-0.7267612075011983
 30
0.0
  0
VERTEX
  5
EBDB
330
E2A6
100
AcDbEntity
  8
Pel_Clad
  6
Continuous
100
AcDbVertex
100
AcDb2dVertex
 10
-2.4148428319439
 20
-1.344150725901329
 30
0.0
 42
0.3394542588633722
  0
VERTEX
  5
EBDC
330
E2A6
100
AcDbEntity
  8
Pel_Clad
  6
Continuous
100
AcDbVertex
100
AcDb2dVertex
 10
-2.512615658314729
 20
-1.471570754002186
 30
0.0
  0
VERTEX
  5
EBDD
330
E2A6
100
AcDbEntity
  8
Pel_Clad
  6
Continuous
100
AcDbVertex
100
AcDb2dVertex
 10
-2.512615658314729
 20
-2.458617424328365
 30
0.0
 42
-0.1989123673796534
  0
VERTEX
  5
EBDE
330
E2A6
100
AcDbEntity
  8
Pel_Clad
  6
Continuous
100
AcDbVertex
100
AcDb2dVertex
 10
-2.536607979973438
 20
-2.516540012669651
 30
0.0
  0
VERTEX
  5
EBDF
330
E2A6
100
AcDbEntity
  8
Pel_Clad
  6
Continuous
100
AcDbVertex
100
AcDb2dVertex
 10
-2.88280999469897
 20
-2.862742027395181
 30
0.0
 42
1.0
  0
VERTEX
  5
EBE0
330
E2A6
100
AcDbEntity
  8
Pel_Clad
  6
Continuous
100
AcDbVertex
100
AcDb2dVertex
 10
-2.797396550702713
 20
-2.948155471391436
 30
0.0
  0
VERTEX
  5
EBE1
330
E2A6
100
AcDbEntity
  8
Pel_Clad
  6
Continuous
100
AcDbVertex
100
AcDb2dVertex
 10
-2.583777057449665
 20
-2.734535978138382
 30
0.0
  0
VERTEX
  5
EBE2
330
E2A6
100
AcDbEntity
  8
Pel_Clad
  6
Continuous
100
AcDbVertex
100
AcDb2dVertex
 10
-2.61913240358006
 20
-2.699180632007986
 30
0.0
  0
VERTEX
  5
EBE3
330
E2A6
100
AcDbEntity
  8
Pel_Clad
  6
Continuous
100
AcDbVertex
100
AcDb2dVertex
 10
-2.832751896833126
 20
-2.912800125261053
 30
0.0
 42
-1.0
  0
VERTEX
  5
EBE4
330
E2A6
100
AcDbEntity
  8
Pel_Clad
  6
Continuous
100
AcDbVertex
100
AcDb2dVertex
 10
-2.847454648568586
 20
-2.898097373525594
 30
0.0
  0
VERTEX
  5
EBE5
330
E2A6
100
AcDbEntity
  8
Pel_Clad
  6
Continuous
100
AcDbVertex
100
AcDb2dVertex
 10
-2.50125263384305
 20
-2.551895358800038
 30
0.0
 42
0.198912367379655
  0
SEQEND
  5
EBE6
330
E2A6
100
AcDbEntity
  8
Pel_Clad
  6
Continuous
  0
ENDBLK
  5
E2BC
330
E2A4
100
AcDbEntity
  8
0
100
AcDbBlockEnd
  0
BLOCK
  5
E2BE
330
E2BD
100
AcDbEntity
  8
0
100
AcDbBlockBegin
  2
49A1M125
 70
     0
 10
0.0
 20
0.0
 30
0.0
  3
49A1M125
  1

  0
POLYLINE
  5
E2BF
330
E2BD
100
AcDbEntity
  8
Pel_Clad
  6
Continuous
100
AcDb2dPolyline
 66
     1
 10
0.0
 20
0.0
 30
0.0
 70
     1
  0
VERTEX
  5
EB9A
330
E2BF
100
AcDbEntity
  8
Pel_Clad
  6
Continuous
100
AcDbVertex
100
AcDb2dVertex
 10
-3.005631855436432
 20
-0.7625311752376405
 30
0.0
  0
VERTEX
  5
EB9B
330
E2BF
100
AcDbEntity
  8
Pel_Clad
  6
Continuous
100
AcDbVertex
100
AcDb2dVertex
 10
-0.4444149199999857
 20
-0.7625311752376405
 30
0.0
 42
0.4142135623730951
  0
VERTEX
  5
EB9C
330
E2BF
100
AcDbEntity
  8
Pel_Clad
  6
Continuous
100
AcDbVertex
100
AcDb2dVertex
 10
-0.3625000099999909
 20
-0.6806162652376317
 30
0.0
  0
VERTEX
  5
EB9D
330
E2BF
100
AcDbEntity
  8
Pel_Clad
  6
Continuous
100
AcDbVertex
100
AcDb2dVertex
 10
-0.3625000099999909
 20
-0.131914920000014
 30
0.0
 42
-0.4142135623730951
  0
VERTEX
  5
EB9E
330
E2BF
100
AcDbEntity
  8
Pel_Clad
  6
Continuous
100
AcDbVertex
100
AcDb2dVertex
 10
-0.2305850900000053
 20
0.0
 30
0.0
  0
VERTEX
  5
EB9F
330
E2BF
100
AcDbEntity
  8
Pel_Clad
  6
Continuous
100
AcDbVertex
100
AcDb2dVertex
 10
0.0
 20
0.0
 30
0.0
  0
VERTEX
  5
EBA0
330
E2BF
100
AcDbEntity
  8
Pel_Clad
  6
Continuous
100
AcDbVertex
100
AcDb2dVertex
 10
0.0
 20
-0.0500000100000051
 30
0.0
  0
VERTEX
  5
EBA1
330
E2BF
100
AcDbEntity
  8
Pel_Clad
  6
Continuous
100
AcDbVertex
100
AcDb2dVertex
 10
-0.1491673466342043
 20
-0.0500000100000051
 30
0.0
  0
VERTEX
  5
EBA2
330
E2BF
100
AcDbEntity
  8
Pel_Clad
  6
Continuous
100
AcDbVertex
100
AcDb2dVertex
 10
-0.1140000000000008
 20
-0.1300000000000132
 30
0.0
  0
VERTEX
  5
EBA3
330
E2BF
100
AcDbEntity
  8
Pel_Clad
  6
Continuous
100
AcDbVertex
100
AcDb2dVertex
 10
0.0
 20
-0.0500000100000051
 30
0.0
  0
VERTEX
  5
EBA4
330
E2BF
100
AcDbEntity
  8
Pel_Clad
  6
Continuous
100
AcDbVertex
100
AcDb2dVertex
 10
-0.2305850900000053
 20
-0.0500000100000051
 30
0.0
 42
0.4142135623730951
  0
VERTEX
  5
EBA5
330
E2BF
100
AcDbEntity
  8
Pel_Clad
  6
Continuous
100
AcDbVertex
100
AcDb2dVertex
 10
-0.3125
 20
-0.131914920000014
 30
0.0
  0
VERTEX
  5
EBA6
330
E2BF
100
AcDbEntity
  8
Pel_Clad
  6
Continuous
100
AcDbVertex
100
AcDb2dVertex
 10
-0.3125
 20
-0.6806162652376317
 30
0.0
 42
-0.4142135623730951
  0
VERTEX
  5
EBA7
330
E2BF
100
AcDbEntity
  8
Pel_Clad
  6
Continuous
100
AcDbVertex
100
AcDb2dVertex
 10
-0.4444149199999857
 20
-0.8125311852376453
 30
0.0
  0
VERTEX
  5
EBA8
330
E2BF
100
AcDbEntity
  8
Pel_Clad
  6
Continuous
100
AcDbVertex
100
AcDb2dVertex
 10
-3.005631855436432
 20
-0.8125311852376453
 30
0.0
 42
0.4142135623730951
  0
VERTEX
  5
EBA9
330
E2BF
100
AcDbEntity
  8
Pel_Clad
  6
Continuous
100
AcDbVertex
100
AcDb2dVertex
 10
-3.087546765436428
 20
-0.8944460952376401
 30
0.0
  0
VERTEX
  5
EBAA
330
E2BF
100
AcDbEntity
  8
Pel_Clad
  6
Continuous
100
AcDbVertex
100
AcDb2dVertex
 10
-3.0875467654364
 20
-1.878701582690979
 30
0.0
 42
-0.1989123673796568
  0
VERTEX
  5
EBAB
330
E2BF
100
AcDbEntity
  8
Pel_Clad
  6
Continuous
100
AcDbVertex
100
AcDb2dVertex
 10
-3.126183750964741
 20
-1.97197951716265
 30
0.0
  0
VERTEX
  5
EBAC
330
E2BF
100
AcDbEntity
  8
Pel_Clad
  6
Continuous
100
AcDbVertex
100
AcDb2dVertex
 10
-3.635300633419048
 20
-2.481096399616961
 30
0.0
 42
1.000000000000021
  0
VERTEX
  5
EBAD
330
E2BF
100
AcDbEntity
  8
Pel_Clad
  6
Continuous
100
AcDbVertex
100
AcDb2dVertex
 10
-3.592874226547863
 20
-2.523522806488155
 30
0.0
  0
VERTEX
  5
EBAE
330
E2BF
100
AcDbEntity
  8
Pel_Clad
  6
Continuous
100
AcDbVertex
100
AcDb2dVertex
 10
-3.348922387038502
 20
-2.279570966978798
 30
0.0
  0
VERTEX
  5
EBAF
330
E2BF
100
AcDbEntity
  8
Pel_Clad
  6
Continuous
100
AcDbVertex
100
AcDb2dVertex
 10
-3.313567047979173
 20
-2.314926306038127
 30
0.0
  0
VERTEX
  5
EBB0
330
E2BF
100
AcDbEntity
  8
Pel_Clad
  6
Continuous
100
AcDbVertex
100
AcDb2dVertex
 10
-3.557518887488533
 20
-2.558878145547484
 30
0.0
 42
-1.000092028482973
  0
VERTEX
  5
EBB1
330
E2BF
100
AcDbEntity
  8
Pel_Clad
  6
Continuous
100
AcDbVertex
100
AcDb2dVertex
 10
-3.670655979549443
 20
-2.445741053486575
 30
0.0
  0
VERTEX
  5
EBB2
330
E2BF
100
AcDbEntity
  8
Pel_Clad
  6
Continuous
100
AcDbVertex
100
AcDb2dVertex
 10
-3.161539097095128
 20
-1.936624171032264
 30
0.0
 42
0.1989123673796573
  0
VERTEX
  5
EBB3
330
E2BF
100
AcDbEntity
  8
Pel_Clad
  6
Continuous
100
AcDbVertex
100
AcDb2dVertex
 10
-3.137546775436418
 20
-1.878701582690979
 30
0.0
  0
VERTEX
  5
EBB4
330
E2BF
100
AcDbEntity
  8
Pel_Clad
  6
Continuous
100
AcDbVertex
100
AcDb2dVertex
 10
-3.137546775436418
 20
-0.8916549123647712
 30
0.0
  0
VERTEX
  5
EBB5
330
E2BF
100
AcDbEntity
  8
Pel_Clad
  6
Continuous
100
AcDbVertex
100
AcDb2dVertex
 10
-3.137546775436418
 20
-0.8944460952376401
 30
0.0
 42
-0.4142135623730951
  0
SEQEND
  5
EBB6
330
E2BF
100
AcDbEntity
  8
Pel_Clad
  6
Continuous
  0
ENDBLK
  5
E2DD
330
E2BD
100
AcDbEntity
  8
0
100
AcDbBlockEnd
  0
BLOCK
  5
E2DF
330
E2DE
100
AcDbEntity
  8
0
100
AcDbBlockBegin
  2
49A1M119
 70
     0
 10
0.0
 20
0.0
 30
0.0
  3
49A1M119
  1

  0
POLYLINE
  5
E2E0
330
E2DE
100
AcDbEntity
  8
Pel_Clad
  6
Continuous
100
AcDb2dPolyline
 66
     1
 10
0.0
 20
0.0
 30
0.0
 70
     1
  0
VERTEX
  5
EA8B
330
E2E0
100
AcDbEntity
  8
Pel_Clad
  6
Continuous
100
AcDbVertex
100
AcDb2dVertex
 10
-0.3125
 20
-0.1319149199999998
 30
0.0
 42
-0.4142135623730887
  0
VERTEX
  5
EA8C
330
E2E0
100
AcDbEntity
  8
Pel_Clad
  6
Continuous
100
AcDbVertex
100
AcDb2dVertex
 10
-0.2305850899999982
 20
-0.050000009999998
 30
0.0
  0
VERTEX
  5
EA8D
330
E2E0
100
AcDbEntity
  8
Pel_Clad
  6
Continuous
100
AcDbVertex
100
AcDb2dVertex
 10
0.0
 20
-0.0500000100000016
 30
0.0
  0
VERTEX
  5
EA8E
330
E2E0
100
AcDbEntity
  8
Pel_Clad
  6
Continuous
100
AcDbVertex
100
AcDb2dVertex
 10
-0.1140000000000008
 20
-0.1300000000000097
 30
0.0
  0
VERTEX
  5
EA8F
330
E2E0
100
AcDbEntity
  8
Pel_Clad
  6
Continuous
100
AcDbVertex
100
AcDb2dVertex
 10
-0.1491673466342043
 20
-0.0500000100000016
 30
0.0
  0
VERTEX
  5
EA90
330
E2E0
100
AcDbEntity
  8
Pel_Clad
  6
Continuous
100
AcDbVertex
100
AcDb2dVertex
 10
0.0
 20
-0.050000009999998
 30
0.0
  0
VERTEX
  5
EA91
330
E2E0
100
AcDbEntity
  8
Pel_Clad
  6
Continuous
100
AcDbVertex
100
AcDb2dVertex
 10
0.0
 20
0.0
 30
0.0
  0
VERTEX
  5
EA92
330
E2E0
100
AcDbEntity
  8
Pel_Clad
  6
Continuous
100
AcDbVertex
100
AcDb2dVertex
 10
-0.2305850899999982
 20
0.0
 30
0.0
 42
0.4142135623730912
  0
VERTEX
  5
EA93
330
E2E0
100
AcDbEntity
  8
Pel_Clad
  6
Continuous
100
AcDbVertex
100
AcDb2dVertex
 10
-0.362500009999998
 20
-0.1319149199999998
 30
0.0
  0
VERTEX
  5
EA94
330
E2E0
100
AcDbEntity
  8
Pel_Clad
  6
Continuous
100
AcDbVertex
100
AcDb2dVertex
 10
-0.362500009999998
 20
-0.9250000100000017
 30
0.0
 42
-0.3394542588633764
  0
VERTEX
  5
EA95
330
E2E0
100
AcDbEntity
  8
Pel_Clad
  6
Continuous
100
AcDbVertex
100
AcDb2dVertex
 10
-0.4232137812141411
 20
-1.004123737127144
 30
0.0
  0
VERTEX
  5
EA96
330
E2E0
100
AcDbEntity
  8
Pel_Clad
  6
Continuous
100
AcDbVertex
100
AcDb2dVertex
 10
-3.347469798972471
 20
-1.787675775547341
 30
0.0
 42
0.3394542588633741
  0
VERTEX
  5
EA97
330
E2E0
100
AcDbEntity
  8
Pel_Clad
  6
Continuous
100
AcDbVertex
100
AcDb2dVertex
 10
-3.445242625343297
 20
-1.915095803648198
 30
0.0
  0
VERTEX
  5
EA98
330
E2E0
100
AcDbEntity
  8
Pel_Clad
  6
Continuous
100
AcDbVertex
100
AcDb2dVertex
 10
-3.445242625343297
 20
-2.814032098784621
 30
0.0
  0
VERTEX
  5
EA99
330
E2E0
100
AcDbEntity
  8
Pel_Clad
  6
Continuous
100
AcDbVertex
100
AcDb2dVertex
 10
-3.395242615343299
 20
-2.814032098784621
 30
0.0
  0
VERTEX
  5
EA9A
330
E2E0
100
AcDbEntity
  8
Pel_Clad
  6
Continuous
100
AcDbVertex
100
AcDb2dVertex
 10
-3.395242615343299
 20
-1.915095803648198
 30
0.0
 42
-0.3394542588633764
  0
VERTEX
  5
EA9B
330
E2E0
100
AcDbEntity
  8
Pel_Clad
  6
Continuous
100
AcDbVertex
100
AcDb2dVertex
 10
-3.334528844129156
 20
-1.835972076521051
 30
0.0
  0
VERTEX
  5
EA9C
330
E2E0
100
AcDbEntity
  8
Pel_Clad
  6
Continuous
100
AcDbVertex
100
AcDb2dVertex
 10
-0.4102728263708252
 20
-1.052420038100855
 30
0.0
 42
0.3394542588633769
  0
VERTEX
  5
EA9D
330
E2E0
100
AcDbEntity
  8
Pel_Clad
  6
Continuous
100
AcDbVertex
100
AcDb2dVertex
 10
-0.3125
 20
-0.9250000100000017
 30
0.0
  0
SEQEND
  5
EA9E
330
E2E0
100
AcDbEntity
  8
Pel_Clad
  6
Continuous
  0
ENDBLK
  5
E2F5
330
E2DE
100
AcDbEntity
  8
0
100
AcDbBlockEnd
  0
BLOCK
  5
E2F7
330
E2F6
100
AcDbEntity
  8
0
100
AcDbBlockBegin
  2
49A1M107
 70
     0
 10
0.0
 20
0.0
 30
0.0
  3
49A1M107
  1

  0
POLYLINE
  5
E2F8
330
E2F6
100
AcDbEntity
  8
Pel_Clad
  6
Continuous
100
AcDb2dPolyline
 66
     1
 10
0.0
 20
0.0
 30
0.0
 70
     1
  0
VERTEX
  5
E9E0
330
E2F8
100
AcDbEntity
  8
Pel_Clad
  6
Continuous
100
AcDbVertex
100
AcDb2dVertex
 10
0.0
 20
0.0
 30
0.0
  0
VERTEX
  5
E9E1
330
E2F8
100
AcDbEntity
  8
Pel_Clad
  6
Continuous
100
AcDbVertex
100
AcDb2dVertex
 10
-0.0500000099999909
 20
0.0
 30
0.0
  0
VERTEX
  5
E9E2
330
E2F8
100
AcDbEntity
  8
Pel_Clad
  6
Continuous
100
AcDbVertex
100
AcDb2dVertex
 10
-0.0500000099999909
 20
2.71063884
 30
0.0
 42
-0.4142135623730951
  0
VERTEX
  5
E9E3
330
E2F8
100
AcDbEntity
  8
Pel_Clad
  6
Continuous
100
AcDbVertex
100
AcDb2dVertex
 10
0.0819149099999948
 20
2.842553760000015
 30
0.0
  0
VERTEX
  5
E9E4
330
E2F8
100
AcDbEntity
  8
Pel_Clad
  6
Continuous
100
AcDbVertex
100
AcDb2dVertex
 10
2.685201292755095
 20
2.842553760000015
 30
0.0
  0
VERTEX
  5
E9E5
330
E2F8
100
AcDbEntity
  8
Pel_Clad
  6
Continuous
100
AcDbVertex
100
AcDb2dVertex
 10
2.685201292755095
 20
2.792553750000023
 30
0.0
  0
VERTEX
  5
E9E6
330
E2F8
100
AcDbEntity
  8
Pel_Clad
  6
Continuous
100
AcDbVertex
100
AcDb2dVertex
 10
0.0819149099999948
 20
2.792553750000023
 30
0.0
 42
0.4142135623730951
  0
VERTEX
  5
E9E7
330
E2F8
100
AcDbEntity
  8
Pel_Clad
  6
Continuous
100
AcDbVertex
100
AcDb2dVertex
 10
0.0
 20
2.71063884
 30
0.0
  0
SEQEND
  5
E9E8
330
E2F8
100
AcDbEntity
  8
Pel_Clad
  6
Continuous
  0
ENDBLK
  5
E302
330
E2F6
100
AcDbEntity
  8
0
100
AcDbBlockEnd
  0
BLOCK
  5
E304
330
E303
100
AcDbEntity
  8
0
100
AcDbBlockBegin
  2
49A1M127
 70
     0
 10
0.0
 20
0.0
 30
0.0
  3
49A1M127
  1

  0
POLYLINE
  5
E305
330
E303
100
AcDbEntity
  8
Pel_Clad
  6
Continuous
100
AcDb2dPolyline
 66
     1
 10
0.0
 20
0.0
 30
0.0
 70
     1
  0
VERTEX
  5
EC02
330
E305
100
AcDbEntity
  8
Pel_Clad
  6
Continuous
100
AcDbVertex
100
AcDb2dVertex
 10
-2.519812150566139
 20
-1.805119362567353
 30
0.0
 42
0.198912367379655
  0
VERTEX
  5
EC03
330
E305
100
AcDbEntity
  8
Pel_Clad
  6
Continuous
100
AcDbVertex
100
AcDb2dVertex
 10
-2.481175165037825
 20
-1.71184142809568
 30
0.0
  0
VERTEX
  5
EC04
330
E305
100
AcDbEntity
  8
Pel_Clad
  6
Continuous
100
AcDbVertex
100
AcDb2dVertex
 10
-2.481175165037825
 20
-0.7247947577694731
 30
0.0
 42
-0.3394542588633729
  0
VERTEX
  5
EC05
330
E305
100
AcDbEntity
  8
Pel_Clad
  6
Continuous
100
AcDbVertex
100
AcDb2dVertex
 10
-2.42046139382367
 20
-0.6456710306423476
 30
0.0
  0
VERTEX
  5
EC06
330
E305
100
AcDbEntity
  8
Pel_Clad
  6
Continuous
100
AcDbVertex
100
AcDb2dVertex
 10
-0.0212011387858411
 20
-0.0027911828728691
 30
0.0
 42
-0.0655434628152406
  0
VERTEX
  5
EC07
330
E305
100
AcDbEntity
  8
Pel_Clad
  6
Continuous
100
AcDbVertex
100
AcDb2dVertex
 10
0.0
 20
0.0
 30
0.0
  0
VERTEX
  5
EC08
330
E305
100
AcDbEntity
  8
Pel_Clad
  6
Continuous
100
AcDbVertex
100
AcDb2dVertex
 10
2.462738818997904
 20
0.0
 30
0.0
  0
VERTEX
  5
EC09
330
E305
100
AcDbEntity
  8
Pel_Clad
  6
Continuous
100
AcDbVertex
100
AcDb2dVertex
 10
2.462738818997904
 20
0.0500000099999909
 30
0.0
  0
VERTEX
  5
EC0A
330
E305
100
AcDbEntity
  8
Pel_Clad
  6
Continuous
100
AcDbVertex
100
AcDb2dVertex
 10
0.0
 20
0.0500000099999909
 30
0.0
 42
0.0655434628152403
  0
VERTEX
  5
EC0B
330
E305
100
AcDbEntity
  8
Pel_Clad
  6
Continuous
100
AcDbVertex
100
AcDb2dVertex
 10
-0.034142093629157
 20
0.0455051181008628
 30
0.0
  0
VERTEX
  5
EC0C
330
E305
100
AcDbEntity
  8
Pel_Clad
  6
Continuous
100
AcDbVertex
100
AcDb2dVertex
 10
-2.433402348666986
 20
-0.5973747296686156
 30
0.0
 42
0.3394542588633722
  0
VERTEX
  5
EC0D
330
E305
100
AcDbEntity
  8
Pel_Clad
  6
Continuous
100
AcDbVertex
100
AcDb2dVertex
 10
-2.531175175037815
 20
-0.7247947577694731
 30
0.0
  0
VERTEX
  5
EC0E
330
E305
100
AcDbEntity
  8
Pel_Clad
  6
Continuous
100
AcDbVertex
100
AcDb2dVertex
 10
-2.531175175037815
 20
-1.71184142809568
 30
0.0
 42
-0.1989123673796534
  0
VERTEX
  5
EC0F
330
E305
100
AcDbEntity
  8
Pel_Clad
  6
Continuous
100
AcDbVertex
100
AcDb2dVertex
 10
-2.555167496696525
 20
-1.769764016436965
 30
0.0
  0
VERTEX
  5
EC10
330
E305
100
AcDbEntity
  8
Pel_Clad
  6
Continuous
100
AcDbVertex
100
AcDb2dVertex
 10
-2.901369511422056
 20
-2.115966031162495
 30
0.0
 42
1.0
  0
VERTEX
  5
EC11
330
E305
100
AcDbEntity
  8
Pel_Clad
  6
Continuous
100
AcDbVertex
100
AcDb2dVertex
 10
-2.815956067425805
 20
-2.201379475158748
 30
0.0
  0
VERTEX
  5
EC12
330
E305
100
AcDbEntity
  8
Pel_Clad
  6
Continuous
100
AcDbVertex
100
AcDb2dVertex
 10
-2.602336574172752
 20
-1.987759981905696
 30
0.0
  0
VERTEX
  5
EC13
330
E305
100
AcDbEntity
  8
Pel_Clad
  6
Continuous
100
AcDbVertex
100
AcDb2dVertex
 10
-2.637691920303146
 20
-1.952404635775301
 30
0.0
  0
VERTEX
  5
EC14
330
E305
100
AcDbEntity
  8
Pel_Clad
  6
Continuous
100
AcDbVertex
100
AcDb2dVertex
 10
-2.851311413556214
 20
-2.166024129028368
 30
0.0
 42
-1.0
  0
VERTEX
  5
EC15
330
E305
100
AcDbEntity
  8
Pel_Clad
  6
Continuous
100
AcDbVertex
100
AcDb2dVertex
 10
-2.866014165291676
 20
-2.151321377292905
 30
0.0
  0
SEQEND
  5
EC16
330
E305
100
AcDbEntity
  8
Pel_Clad
  6
Continuous
  0
ENDBLK
  5
E31B
330
E303
100
AcDbEntity
  8
0
100
AcDbBlockEnd
  0
BLOCK
  5
E31D
330
E31C
100
AcDbEntity
  8
0
100
AcDbBlockBegin
  2
49A1M128
 70
     0
 10
0.0
 20
0.0
 30
0.0
  3
49A1M128
  1

  0
POLYLINE
  5
E31E
330
E31C
100
AcDbEntity
  8
Pel_Clad
  6
Continuous
100
AcDb2dPolyline
 66
     1
 10
0.0
 20
0.0
 30
0.0
 70
     1
  0
VERTEX
  5
EC26
330
E31E
100
AcDbEntity
  8
Pel_Clad
  6
Continuous
100
AcDbVertex
100
AcDb2dVertex
 10
0.0819149099999948
 20
2.792553749999995
 30
0.0
 42
0.4142135623730951
  0
VERTEX
  5
EC27
330
E31E
100
AcDbEntity
  8
Pel_Clad
  6
Continuous
100
AcDbVertex
100
AcDb2dVertex
 10
0.0
 20
2.71063884
 30
0.0
  0
VERTEX
  5
EC28
330
E31E
100
AcDbEntity
  8
Pel_Clad
  6
Continuous
100
AcDbVertex
100
AcDb2dVertex
 10
0.0
 20
0.0
 30
0.0
  0
VERTEX
  5
EC29
330
E31E
100
AcDbEntity
  8
Pel_Clad
  6
Continuous
100
AcDbVertex
100
AcDb2dVertex
 10
-0.0500000099999909
 20
0.0
 30
0.0
  0
VERTEX
  5
EC2A
330
E31E
100
AcDbEntity
  8
Pel_Clad
  6
Continuous
100
AcDbVertex
100
AcDb2dVertex
 10
-0.0500000099999909
 20
2.71063884
 30
0.0
 42
-0.4142135623730951
  0
VERTEX
  5
EC2B
330
E31E
100
AcDbEntity
  8
Pel_Clad
  6
Continuous
100
AcDbVertex
100
AcDb2dVertex
 10
0.0819149099999948
 20
2.842553759999987
 30
0.0
  0
VERTEX
  5
EC2C
330
E31E
100
AcDbEntity
  8
Pel_Clad
  6
Continuous
100
AcDbVertex
100
AcDb2dVertex
 10
2.685201292755095
 20
2.842553759999987
 30
0.0
  0
VERTEX
  5
EC2D
330
E31E
100
AcDbEntity
  8
Pel_Clad
  6
Continuous
100
AcDbVertex
100
AcDb2dVertex
 10
2.685201292755095
 20
2.792553749999966
 30
0.0
  0
SEQEND
  5
EC2E
330
E31E
100
AcDbEntity
  8
Pel_Clad
  6
Continuous
  0
ENDBLK
  5
E328
330
E31C
100
AcDbEntity
  8
0
100
AcDbBlockEnd
  0
BLOCK
  5
E32A
330
E329
100
AcDbEntity
  8
0
100
AcDbBlockBegin
  2
49A1M130
 70
     0
 10
0.0
 20
0.0
 30
0.0
  3
49A1M130
  1

  0
POLYLINE
  5
E32B
330
E329
100
AcDbEntity
  8
Pel_Clad
  6
Continuous
100
AcDb2dPolyline
 66
     1
 10
0.0
 20
0.0
 30
0.0
 70
     1
  0
VERTEX
  5
EC46
330
E32B
100
AcDbEntity
  8
Pel_Clad
  6
Continuous
100
AcDbVertex
100
AcDb2dVertex
 10
4.02199291285941
 20
0.0
 30
0.0
  0
VERTEX
  5
EC47
330
E32B
100
AcDbEntity
  8
Pel_Clad
  6
Continuous
100
AcDbVertex
100
AcDb2dVertex
 10
0.0
 20
0.0
 30
0.0
 42
0.4142135623730951
  0
VERTEX
  5
EC48
330
E32B
100
AcDbEntity
  8
Pel_Clad
  6
Continuous
100
AcDbVertex
100
AcDb2dVertex
 10
-0.0819149099999663
 20
-0.0819149100000232
 30
0.0
  0
VERTEX
  5
EC49
330
E32B
100
AcDbEntity
  8
Pel_Clad
  6
Continuous
100
AcDbVertex
100
AcDb2dVertex
 10
-0.0819149099999663
 20
-1.06896158032623
 30
0.0
 42
-0.1989123673796594
  0
VERTEX
  5
EC4A
330
E32B
100
AcDbEntity
  8
Pel_Clad
  6
Continuous
100
AcDbVertex
100
AcDb2dVertex
 10
-0.1205518955283082
 20
-1.162239514797903
 30
0.0
  0
VERTEX
  5
EC4B
330
E32B
100
AcDbEntity
  8
Pel_Clad
  6
Continuous
100
AcDbVertex
100
AcDb2dVertex
 10
-0.6296687779826195
 20
-1.671356397252214
 30
0.0
 42
1.0
  0
VERTEX
  5
EC4C
330
E32B
100
AcDbEntity
  8
Pel_Clad
  6
Continuous
100
AcDbVertex
100
AcDb2dVertex
 10
-0.5872423711114259
 20
-1.713782804123407
 30
0.0
  0
VERTEX
  5
EC4D
330
E32B
100
AcDbEntity
  8
Pel_Clad
  6
Continuous
100
AcDbVertex
100
AcDb2dVertex
 10
-0.3432905316020687
 20
-1.46983096461405
 30
0.0
  0
VERTEX
  5
EC4E
330
E32B
100
AcDbEntity
  8
Pel_Clad
  6
Continuous
100
AcDbVertex
100
AcDb2dVertex
 10
-0.3079351925427396
 20
-1.505186303673379
 30
0.0
  0
VERTEX
  5
EC4F
330
E32B
100
AcDbEntity
  8
Pel_Clad
  6
Continuous
100
AcDbVertex
100
AcDb2dVertex
 10
-0.5518870320520968
 20
-1.749138143182736
 30
0.0
 42
-1.000092028482989
  0
VERTEX
  5
EC50
330
E32B
100
AcDbEntity
  8
Pel_Clad
  6
Continuous
100
AcDbVertex
100
AcDb2dVertex
 10
-0.6650241241130141
 20
-1.636001051121826
 30
0.0
  0
VERTEX
  5
EC51
330
E32B
100
AcDbEntity
  8
Pel_Clad
  6
Continuous
100
AcDbVertex
100
AcDb2dVertex
 10
-0.1559072416586957
 20
-1.126884168667514
 30
0.0
 42
0.1989123673796534
  0
VERTEX
  5
EC52
330
E32B
100
AcDbEntity
  8
Pel_Clad
  6
Continuous
100
AcDbVertex
100
AcDb2dVertex
 10
-0.1319149199999856
 20
-1.06896158032623
 30
0.0
  0
VERTEX
  5
EC53
330
E32B
100
AcDbEntity
  8
Pel_Clad
  6
Continuous
100
AcDbVertex
100
AcDb2dVertex
 10
-0.1319149199999856
 20
-0.0819149100000232
 30
0.0
 42
-0.4142135623730951
  0
VERTEX
  5
EC54
330
E32B
100
AcDbEntity
  8
Pel_Clad
  6
Continuous
100
AcDbVertex
100
AcDb2dVertex
 10
0.0
 20
0.0500000099999909
 30
0.0
  0
VERTEX
  5
EC55
330
E32B
100
AcDbEntity
  8
Pel_Clad
  6
Continuous
100
AcDbVertex
100
AcDb2dVertex
 10
4.02199291285941
 20
0.0500000099999909
 30
0.0
  0
SEQEND
  5
EC56
330
E32B
100
AcDbEntity
  8
Pel_Clad
  6
Continuous
  0
ENDBLK
  5
E33D
330
E329
100
AcDbEntity
  8
0
100
AcDbBlockEnd
  0
BLOCK
  5
E33F
330
E33E
100
AcDbEntity
  8
0
100
AcDbBlockBegin
  2
49A1M131
 70
     0
 10
0.0
 20
0.0
 30
0.0
  3
49A1M131
  1

  0
POLYLINE
  5
E340
330
E33E
100
AcDbEntity
  8
Pel_Clad
  6
Continuous
100
AcDb2dPolyline
 66
     1
 10
0.0
 20
0.0
 30
0.0
 70
     1
  0
VERTEX
  5
EC72
330
E340
100
AcDbEntity
  8
Pel_Clad
  6
Continuous
100
AcDbVertex
100
AcDb2dVertex
 10
-0.0819149100000232
 20
-1.049902191487062
 30
0.0
  0
VERTEX
  5
EC73
330
E340
100
AcDbEntity
  8
Pel_Clad
  6
Continuous
100
AcDbVertex
100
AcDb2dVertex
 10
-0.0819149100000232
 20
-0.0819149100000232
 30
0.0
 42
-0.4142135623730951
  0
VERTEX
  5
EC74
330
E340
100
AcDbEntity
  8
Pel_Clad
  6
Continuous
100
AcDbVertex
100
AcDb2dVertex
 10
0.0
 20
0.0
 30
0.0
  0
VERTEX
  5
EC75
330
E340
100
AcDbEntity
  8
Pel_Clad
  6
Continuous
100
AcDbVertex
100
AcDb2dVertex
 10
2.248785818314729
 20
0.0
 30
0.0
 42
0.4142135623730951
  0
VERTEX
  5
EC76
330
E340
100
AcDbEntity
  8
Pel_Clad
  6
Continuous
100
AcDbVertex
100
AcDb2dVertex
 10
2.380700738314714
 20
0.1319149199999856
 30
0.0
  0
VERTEX
  5
EC77
330
E340
100
AcDbEntity
  8
Pel_Clad
  6
Continuous
100
AcDbVertex
100
AcDb2dVertex
 10
2.380700738314714
 20
0.4250000099999909
 30
0.0
  0
VERTEX
  5
EC78
330
E340
100
AcDbEntity
  8
Pel_Clad
  6
Continuous
100
AcDbVertex
100
AcDb2dVertex
 10
2.330700728314724
 20
0.4250000099999909
 30
0.0
  0
VERTEX
  5
EC79
330
E340
100
AcDbEntity
  8
Pel_Clad
  6
Continuous
100
AcDbVertex
100
AcDb2dVertex
 10
2.330700728314724
 20
0.1319149199999856
 30
0.0
 42
-0.4142135623730951
  0
VERTEX
  5
EC7A
330
E340
100
AcDbEntity
  8
Pel_Clad
  6
Continuous
100
AcDbVertex
100
AcDb2dVertex
 10
2.248785818314729
 20
0.0500000099999909
 30
0.0
  0
VERTEX
  5
EC7B
330
E340
100
AcDbEntity
  8
Pel_Clad
  6
Continuous
100
AcDbVertex
100
AcDb2dVertex
 10
0.0
 20
0.0500000099999909
 30
0.0
 42
0.4142135623730951
  0
VERTEX
  5
EC7C
330
E340
100
AcDbEntity
  8
Pel_Clad
  6
Continuous
100
AcDbVertex
100
AcDb2dVertex
 10
-0.131914920000014
 20
-0.0819149100000232
 30
0.0
  0
VERTEX
  5
EC7D
330
E340
100
AcDbEntity
  8
Pel_Clad
  6
Continuous
100
AcDbVertex
100
AcDb2dVertex
 10
-0.131914920000014
 20
-1.049902191487062
 30
0.0
 42
-0.1989123673796534
  0
VERTEX
  5
EC7E
330
E340
100
AcDbEntity
  8
Pel_Clad
  6
Continuous
100
AcDbVertex
100
AcDb2dVertex
 10
-0.1559072416587242
 20
-1.107824779828347
 30
0.0
  0
VERTEX
  5
EC7F
330
E340
100
AcDbEntity
  8
Pel_Clad
  6
Continuous
100
AcDbVertex
100
AcDb2dVertex
 10
-0.5021092563842551
 20
-1.454026794553879
 30
0.0
 42
1.0
  0
VERTEX
  5
EC80
330
E340
100
AcDbEntity
  8
Pel_Clad
  6
Continuous
100
AcDbVertex
100
AcDb2dVertex
 10
-0.4166958123879958
 20
-1.539440238550138
 30
0.0
  0
VERTEX
  5
EC81
330
E340
100
AcDbEntity
  8
Pel_Clad
  6
Continuous
100
AcDbVertex
100
AcDb2dVertex
 10
-0.2030763191349507
 20
-1.325820745297079
 30
0.0
  0
VERTEX
  5
EC82
330
E340
100
AcDbEntity
  8
Pel_Clad
  6
Continuous
100
AcDbVertex
100
AcDb2dVertex
 10
-0.2384316652653453
 20
-1.290465399166684
 30
0.0
  0
VERTEX
  5
EC83
330
E340
100
AcDbEntity
  8
Pel_Clad
  6
Continuous
100
AcDbVertex
100
AcDb2dVertex
 10
-0.4520511585184117
 20
-1.504084892419751
 30
0.0
 42
-1.0
  0
VERTEX
  5
EC84
330
E340
100
AcDbEntity
  8
Pel_Clad
  6
Continuous
100
AcDbVertex
100
AcDb2dVertex
 10
-0.4667539102538676
 20
-1.489382140684295
 30
0.0
  0
VERTEX
  5
EC85
330
E340
100
AcDbEntity
  8
Pel_Clad
  6
Continuous
100
AcDbVertex
100
AcDb2dVertex
 10
-0.1205518955283367
 20
-1.143180125958735
 30
0.0
 42
0.1989123673796532
  0
SEQEND
  5
EC86
330
E340
100
AcDbEntity
  8
Pel_Clad
  6
Continuous
  0
ENDBLK
  5
E356
330
E33E
100
AcDbEntity
  8
0
100
AcDbBlockEnd
  0
BLOCK
  5
E358
330
E357
100
AcDbEntity
  8
0
100
AcDbBlockBegin
  2
49A1M132
 70
     0
 10
0.0
 20
0.0
 30
0.0
  3
49A1M132
  1

  0
POLYLINE
  5
E359
330
E357
100
AcDbEntity
  8
Pel_Clad
  6
Continuous
100
AcDb2dPolyline
 66
     1
 10
0.0
 20
0.0
 30
0.0
 70
     1
  0
VERTEX
  5
ED06
330
E359
100
AcDbEntity
  8
Pel_Clad
  6
Continuous
100
AcDbVertex
100
AcDb2dVertex
 10
-0.2030763191349507
 20
-1.325820745297079
 30
0.0
  0
VERTEX
  5
ED07
330
E359
100
AcDbEntity
  8
Pel_Clad
  6
Continuous
100
AcDbVertex
100
AcDb2dVertex
 10
-0.2384316652653453
 20
-1.290465399166684
 30
0.0
  0
VERTEX
  5
ED08
330
E359
100
AcDbEntity
  8
Pel_Clad
  6
Continuous
100
AcDbVertex
100
AcDb2dVertex
 10
-0.4520511585184117
 20
-1.504084892419751
 30
0.0
 42
-1.0
  0
VERTEX
  5
ED09
330
E359
100
AcDbEntity
  8
Pel_Clad
  6
Continuous
100
AcDbVertex
100
AcDb2dVertex
 10
-0.4667539102538676
 20
-1.489382140684295
 30
0.0
  0
VERTEX
  5
ED0A
330
E359
100
AcDbEntity
  8
Pel_Clad
  6
Continuous
100
AcDbVertex
100
AcDb2dVertex
 10
-0.1205518955283367
 20
-1.143180125958735
 30
0.0
 42
0.1989123673796525
  0
VERTEX
  5
ED0B
330
E359
100
AcDbEntity
  8
Pel_Clad
  6
Continuous
100
AcDbVertex
100
AcDb2dVertex
 10
-0.0819149099999948
 20
-1.049902191487062
 30
0.0
  0
VERTEX
  5
ED0C
330
E359
100
AcDbEntity
  8
Pel_Clad
  6
Continuous
100
AcDbVertex
100
AcDb2dVertex
 10
-0.0819149099999948
 20
-0.0819149100000232
 30
0.0
 42
-0.4142135623730966
  0
VERTEX
  5
ED0D
330
E359
100
AcDbEntity
  8
Pel_Clad
  6
Continuous
100
AcDbVertex
100
AcDb2dVertex
 10
0.0
 20
0.0
 30
0.0
  0
VERTEX
  5
ED0E
330
E359
100
AcDbEntity
  8
Pel_Clad
  6
Continuous
100
AcDbVertex
100
AcDb2dVertex
 10
2.380700738314714
 20
0.0
 30
0.0
  0
VERTEX
  5
ED0F
330
E359
100
AcDbEntity
  8
Pel_Clad
  6
Continuous
100
AcDbVertex
100
AcDb2dVertex
 10
2.380700738314714
 20
0.0500000099999909
 30
0.0
  0
VERTEX
  5
ED10
330
E359
100
AcDbEntity
  8
Pel_Clad
  6
Continuous
100
AcDbVertex
100
AcDb2dVertex
 10
0.0
 20
0.0500000099999909
 30
0.0
 42
0.4142135623730831
  0
VERTEX
  5
ED11
330
E359
100
AcDbEntity
  8
Pel_Clad
  6
Continuous
100
AcDbVertex
100
AcDb2dVertex
 10
-0.1319149199999874
 20
-0.0819149100000232
 30
0.0
  0
VERTEX
  5
ED12
330
E359
100
AcDbEntity
  8
Pel_Clad
  6
Continuous
100
AcDbVertex
100
AcDb2dVertex
 10
-0.131914920000014
 20
-1.049902191487062
 30
0.0
 42
-0.1989123673796534
  0
VERTEX
  5
ED13
330
E359
100
AcDbEntity
  8
Pel_Clad
  6
Continuous
100
AcDbVertex
100
AcDb2dVertex
 10
-0.1559072416587242
 20
-1.107824779828347
 30
0.0
  0
VERTEX
  5
ED14
330
E359
100
AcDbEntity
  8
Pel_Clad
  6
Continuous
100
AcDbVertex
100
AcDb2dVertex
 10
-0.5021092563842551
 20
-1.454026794553879
 30
0.0
 42
1.0
  0
VERTEX
  5
ED15
330
E359
100
AcDbEntity
  8
Pel_Clad
  6
Continuous
100
AcDbVertex
100
AcDb2dVertex
 10
-0.4166958123879958
 20
-1.539440238550138
 30
0.0
  0
SEQEND
  5
ED16
330
E359
100
AcDbEntity
  8
Pel_Clad
  6
Continuous
  0
ENDBLK
  5
E36B
330
E357
100
AcDbEntity
  8
0
100
AcDbBlockEnd
  0
BLOCK
  5
E36D
330
E36C
100
AcDbEntity
  8
0
100
AcDbBlockBegin
  2
49A1M133
 70
     0
 10
0.0
 20
0.0
 30
0.0
  3
49A1M133
  1

  0
POLYLINE
  5
E36E
330
E36C
100
AcDbEntity
  8
Pel_Clad
  6
Continuous
100
AcDb2dPolyline
 66
     1
 10
0.0
 20
0.0
 30
0.0
 70
     1
  0
VERTEX
  5
ECDA
330
E36E
100
AcDbEntity
  8
Pel_Clad
  6
Continuous
100
AcDbVertex
100
AcDb2dVertex
 10
-2.708133353545977
 20
-2.103488688980423
 30
0.0
  0
VERTEX
  5
ECDB
330
E36E
100
AcDbEntity
  8
Pel_Clad
  6
Continuous
100
AcDbVertex
100
AcDb2dVertex
 10
-2.952085193055334
 20
-2.347440528489779
 30
0.0
 42
-1.0
  0
VERTEX
  5
ECDC
330
E36E
100
AcDbEntity
  8
Pel_Clad
  6
Continuous
100
AcDbVertex
100
AcDb2dVertex
 10
-2.994511599926529
 20
-2.305014121618586
 30
0.0
  0
VERTEX
  5
ECDD
330
E36E
100
AcDbEntity
  8
Pel_Clad
  6
Continuous
100
AcDbVertex
100
AcDb2dVertex
 10
-2.485394717472216
 20
-1.795897239164275
 30
0.0
 42
0.198912367379658
  0
VERTEX
  5
ECDE
330
E36E
100
AcDbEntity
  8
Pel_Clad
  6
Continuous
100
AcDbVertex
100
AcDb2dVertex
 10
-2.446757731943904
 20
-1.702619304692603
 30
0.0
  0
VERTEX
  5
ECDF
330
E36E
100
AcDbEntity
  8
Pel_Clad
  6
Continuous
100
AcDbVertex
100
AcDb2dVertex
 10
-2.446757731943904
 20
-0.7155726343664242
 30
0.0
 42
-0.3394542588633754
  0
VERTEX
  5
ECE0
330
E36E
100
AcDbEntity
  8
Pel_Clad
  6
Continuous
100
AcDbVertex
100
AcDb2dVertex
 10
-2.386043960729749
 20
-0.6364489072392701
 30
0.0
  0
VERTEX
  5
ECE1
330
E36E
100
AcDbEntity
  8
Pel_Clad
  6
Continuous
100
AcDbVertex
100
AcDb2dVertex
 10
-0.0212011387858695
 20
-0.0027911828728691
 30
0.0
 42
-0.0655434628152376
  0
VERTEX
  5
ECE2
330
E36E
100
AcDbEntity
  8
Pel_Clad
  6
Continuous
100
AcDbVertex
100
AcDb2dVertex
 10
0.0
 20
0.0
 30
0.0
  0
VERTEX
  5
ECE3
330
E36E
100
AcDbEntity
  8
Pel_Clad
  6
Continuous
100
AcDbVertex
100
AcDb2dVertex
 10
5.0
 20
-0.0000000000000284
 30
0.0
  0
VERTEX
  5
ECE4
330
E36E
100
AcDbEntity
  8
Pel_Clad
  6
Continuous
100
AcDbVertex
100
AcDb2dVertex
 10
5.0
 20
0.0500000099999909
 30
0.0
  0
VERTEX
  5
ECE5
330
E36E
100
AcDbEntity
  8
Pel_Clad
  6
Continuous
100
AcDbVertex
100
AcDb2dVertex
 10
0.0
 20
0.0500000099999909
 30
0.0
 42
0.0655434628152375
  0
VERTEX
  5
ECE6
330
E36E
100
AcDbEntity
  8
Pel_Clad
  6
Continuous
100
AcDbVertex
100
AcDb2dVertex
 10
-0.0341420936291854
 20
0.0455051181008344
 30
0.0
  0
VERTEX
  5
ECE7
330
E36E
100
AcDbEntity
  8
Pel_Clad
  6
Continuous
100
AcDbVertex
100
AcDb2dVertex
 10
-2.398984915573065
 20
-0.5881526062655667
 30
0.0
 42
0.3394542588633722
  0
VERTEX
  5
ECE8
330
E36E
100
AcDbEntity
  8
Pel_Clad
  6
Continuous
100
AcDbVertex
100
AcDb2dVertex
 10
-2.496757741943896
 20
-0.7155726343664242
 30
0.0
  0
VERTEX
  5
ECE9
330
E36E
100
AcDbEntity
  8
Pel_Clad
  6
Continuous
100
AcDbVertex
100
AcDb2dVertex
 10
-2.496757741943894
 20
-1.702619304692603
 30
0.0
 42
-0.1989123673796552
  0
VERTEX
  5
ECEA
330
E36E
100
AcDbEntity
  8
Pel_Clad
  6
Continuous
100
AcDbVertex
100
AcDb2dVertex
 10
-2.520750063602605
 20
-1.760541893033888
 30
0.0
  0
VERTEX
  5
ECEB
330
E36E
100
AcDbEntity
  8
Pel_Clad
  6
Continuous
100
AcDbVertex
100
AcDb2dVertex
 10
-3.029866946056919
 20
-2.269658775488199
 30
0.0
 42
1.000092028482973
  0
VERTEX
  5
ECEC
330
E36E
100
AcDbEntity
  8
Pel_Clad
  6
Continuous
100
AcDbVertex
100
AcDb2dVertex
 10
-2.916729853996008
 20
-2.382795867549108
 30
0.0
  0
VERTEX
  5
ECED
330
E36E
100
AcDbEntity
  8
Pel_Clad
  6
Continuous
100
AcDbVertex
100
AcDb2dVertex
 10
-2.672778014486648
 20
-2.138844028039752
 30
0.0
  0
SEQEND
  5
ECEE
330
E36E
100
AcDbEntity
  8
Pel_Clad
  6
Continuous
  0
ENDBLK
  5
E384
330
E36C
100
AcDbEntity
  8
0
100
AcDbBlockEnd
  0
BLOCK
  5
E386
330
E385
100
AcDbEntity
  8
0
100
AcDbBlockBegin
  2
49A1M134
 70
     0
 10
0.0
 20
0.0
 30
0.0
  3
49A1M134
  1

  0
POLYLINE
  5
E387
330
E385
100
AcDbEntity
  8
Pel_Clad
  6
Continuous
100
AcDb2dPolyline
 66
     1
 10
0.0
 20
0.0
 30
0.0
 70
     1
  0
VERTEX
  5
ECA6
330
E387
100
AcDbEntity
  8
Pel_Clad
  6
Continuous
100
AcDbVertex
100
AcDb2dVertex
 10
-0.0212011387858695
 20
-0.0027911828728406
 30
0.0
 42
-0.0655434628152374
  0
VERTEX
  5
ECA7
330
E387
100
AcDbEntity
  8
Pel_Clad
  6
Continuous
100
AcDbVertex
100
AcDb2dVertex
 10
0.0
 20
0.0
 30
0.0
  0
VERTEX
  5
ECA8
330
E387
100
AcDbEntity
  8
Pel_Clad
  6
Continuous
100
AcDbVertex
100
AcDb2dVertex
 10
5.0
 20
0.0
 30
0.0
 42
0.4142135623730951
  0
VERTEX
  5
ECA9
330
E387
100
AcDbEntity
  8
Pel_Clad
  6
Continuous
100
AcDbVertex
100
AcDb2dVertex
 10
5.131914919999984
 20
0.1319149199999856
 30
0.0
  0
VERTEX
  5
ECAA
330
E387
100
AcDbEntity
  8
Pel_Clad
  6
Continuous
100
AcDbVertex
100
AcDb2dVertex
 10
5.131914919999984
 20
0.5500000099999909
 30
0.0
  0
VERTEX
  5
ECAB
330
E387
100
AcDbEntity
  8
Pel_Clad
  6
Continuous
100
AcDbVertex
100
AcDb2dVertex
 10
5.081914909999993
 20
0.5500000099999909
 30
0.0
  0
VERTEX
  5
ECAC
330
E387
100
AcDbEntity
  8
Pel_Clad
  6
Continuous
100
AcDbVertex
100
AcDb2dVertex
 10
5.081914909999993
 20
0.1319149199999856
 30
0.0
 42
-0.4142135623730951
  0
VERTEX
  5
ECAD
330
E387
100
AcDbEntity
  8
Pel_Clad
  6
Continuous
100
AcDbVertex
100
AcDb2dVertex
 10
5.0
 20
0.0500000099999909
 30
0.0
  0
VERTEX
  5
ECAE
330
E387
100
AcDbEntity
  8
Pel_Clad
  6
Continuous
100
AcDbVertex
100
AcDb2dVertex
 10
0.0
 20
0.0500000099999909
 30
0.0
 42
0.0655434628152374
  0
VERTEX
  5
ECAF
330
E387
100
AcDbEntity
  8
Pel_Clad
  6
Continuous
100
AcDbVertex
100
AcDb2dVertex
 10
-0.0341420936291854
 20
0.0455051181008628
 30
0.0
  0
VERTEX
  5
ECB0
330
E387
100
AcDbEntity
  8
Pel_Clad
  6
Continuous
100
AcDbVertex
100
AcDb2dVertex
 10
-2.433402348666986
 20
-0.5973747296686156
 30
0.0
 42
0.3394542588633734
  0
VERTEX
  5
ECB1
330
E387
100
AcDbEntity
  8
Pel_Clad
  6
Continuous
100
AcDbVertex
100
AcDb2dVertex
 10
-2.531175175037844
 20
-0.7247947577694731
 30
0.0
  0
VERTEX
  5
ECB2
330
E387
100
AcDbEntity
  8
Pel_Clad
  6
Continuous
100
AcDbVertex
100
AcDb2dVertex
 10
-2.531175175037844
 20
-1.71184142809568
 30
0.0
 42
-0.1989123673796534
  0
VERTEX
  5
ECB3
330
E387
100
AcDbEntity
  8
Pel_Clad
  6
Continuous
100
AcDbVertex
100
AcDb2dVertex
 10
-2.555167496696554
 20
-1.769764016436965
 30
0.0
  0
VERTEX
  5
ECB4
330
E387
100
AcDbEntity
  8
Pel_Clad
  6
Continuous
100
AcDbVertex
100
AcDb2dVertex
 10
-2.901369511422084
 20
-2.115966031162495
 30
0.0
 42
1.0
  0
VERTEX
  5
ECB5
330
E387
100
AcDbEntity
  8
Pel_Clad
  6
Continuous
100
AcDbVertex
100
AcDb2dVertex
 10
-2.815956067425826
 20
-2.201379475158755
 30
0.0
  0
VERTEX
  5
ECB6
330
E387
100
AcDbEntity
  8
Pel_Clad
  6
Continuous
100
AcDbVertex
100
AcDb2dVertex
 10
-2.60233657417278
 20
-1.987759981905696
 30
0.0
  0
VERTEX
  5
ECB7
330
E387
100
AcDbEntity
  8
Pel_Clad
  6
Continuous
100
AcDbVertex
100
AcDb2dVertex
 10
-2.637691920303175
 20
-1.952404635775301
 30
0.0
  0
VERTEX
  5
ECB8
330
E387
100
AcDbEntity
  8
Pel_Clad
  6
Continuous
100
AcDbVertex
100
AcDb2dVertex
 10
-2.851311413556242
 20
-2.166024129028368
 30
0.0
 42
-1.0
  0
VERTEX
  5
ECB9
330
E387
100
AcDbEntity
  8
Pel_Clad
  6
Continuous
100
AcDbVertex
100
AcDb2dVertex
 10
-2.866014165291698
 20
-2.151321377292911
 30
0.0
  0
VERTEX
  5
ECBA
330
E387
100
AcDbEntity
  8
Pel_Clad
  6
Continuous
100
AcDbVertex
100
AcDb2dVertex
 10
-2.519812150566167
 20
-1.805119362567353
 30
0.0
 42
0.1989123673796543
  0
VERTEX
  5
ECBB
330
E387
100
AcDbEntity
  8
Pel_Clad
  6
Continuous
100
AcDbVertex
100
AcDb2dVertex
 10
-2.481175165037825
 20
-1.71184142809568
 30
0.0
  0
VERTEX
  5
ECBC
330
E387
100
AcDbEntity
  8
Pel_Clad
  6
Continuous
100
AcDbVertex
100
AcDb2dVertex
 10
-2.481175165037825
 20
-0.7247947577694731
 30
0.0
 42
-0.3394542588633754
  0
VERTEX
  5
ECBD
330
E387
100
AcDbEntity
  8
Pel_Clad
  6
Continuous
100
AcDbVertex
100
AcDb2dVertex
 10
-2.42046139382367
 20
-0.645671030642319
 30
0.0
  0
SEQEND
  5
ECBE
330
E387
100
AcDbEntity
  8
Pel_Clad
  6
Continuous
  0
ENDBLK
  5
E3A1
330
E385
100
AcDbEntity
  8
0
100
AcDbBlockEnd
  0
BLOCK
  5
E3A3
330
E3A2
100
AcDbEntity
  8
0
100
AcDbBlockBegin
  2
49A1M129
 70
     0
 10
0.0
 20
0.0
 30
0.0
  3
49A1M129
  1

  0
POLYLINE
  5
E3A4
330
E3A2
100
AcDbEntity
  8
Pel_Clad
  6
Continuous
100
AcDb2dPolyline
 66
     1
 10
0.0
 20
0.0
 30
0.0
 70
     1
  0
VERTEX
  5
ED25
330
E3A4
100
AcDbEntity
  8
Pel_Clad
  6
Continuous
100
AcDbVertex
100
AcDb2dVertex
 10
-0.0224345459274389
 20
-0.0541617850437604
 30
0.0
  0
VERTEX
  5
ED26
330
E3A4
100
AcDbEntity
  8
Pel_Clad
  6
Continuous
100
AcDbVertex
100
AcDb2dVertex
 10
-0.4642077242127344
 20
-0.495934155853803
 30
0.0
  0
VERTEX
  5
ED27
330
E3A4
100
AcDbEntity
  8
Pel_Clad
  6
Continuous
100
AcDbVertex
100
AcDb2dVertex
 10
-0.4997320340370594
 20
-0.4607477734173246
 30
0.0
  0
VERTEX
  5
ED28
330
E3A4
100
AcDbEntity
  8
Pel_Clad
  6
Continuous
100
AcDbVertex
100
AcDb2dVertex
 10
-0.0577902957954564
 20
-0.0188060351757429
 30
0.0
 42
0.198912367379658
  0
VERTEX
  5
ED29
330
E3A4
100
AcDbEntity
  8
Pel_Clad
  6
Continuous
100
AcDbVertex
100
AcDb2dVertex
 10
-0.050000580971215
 20
0.0
 30
0.0
  0
VERTEX
  5
ED2A
330
E3A4
100
AcDbEntity
  8
Pel_Clad
  6
Continuous
100
AcDbVertex
100
AcDb2dVertex
 10
-0.050000580971215
 20
1.5
 30
0.0
  0
VERTEX
  5
ED2B
330
E3A4
100
AcDbEntity
  8
Pel_Clad
  6
Continuous
100
AcDbVertex
100
AcDb2dVertex
 10
-0.0000005709712241
 20
1.5
 30
0.0
  0
VERTEX
  5
ED2C
330
E3A4
100
AcDbEntity
  8
Pel_Clad
  6
Continuous
100
AcDbVertex
100
AcDb2dVertex
 10
0.0
 20
0.0
 30
0.0
 42
-0.198912367379658
  0
SEQEND
  5
ED2D
330
E3A4
100
AcDbEntity
  8
Pel_Clad
  6
Continuous
  0
ENDBLK
  5
E3AE
330
E3A2
100
AcDbEntity
  8
0
100
AcDbBlockEnd
  0
BLOCK
  5
ED5F
330
ED5C
100
AcDbEntity
  8
0
100
AcDbBlockBegin
  2
49A1M100
 70
     0
 10
0.0
 20
0.0
 30
0.0
  3
49A1M100
  1

  0
POLYLINE
  5
ED60
330
ED5C
100
AcDbEntity
  8
Pel_Clad
100
AcDb2dPolyline
 66
     1
 10
0.0
 20
0.0
 30
0.0
 70
     1
  0
VERTEX
  5
ED61
330
ED60
100
AcDbEntity
  8
Pel_Clad
100
AcDbVertex
100
AcDb2dVertex
 10
-1.402474590405191
 20
4.488000048998543
 30
0.0
  0
VERTEX
  5
ED62
330
ED60
100
AcDbEntity
  8
Pel_Clad
100
AcDbVertex
100
AcDb2dVertex
 10
-1.402474590405191
 20
0.131914920000014
 30
0.0
 42
0.4142135623730951
  0
VERTEX
  5
ED63
330
ED60
100
AcDbEntity
  8
Pel_Clad
100
AcDbVertex
100
AcDb2dVertex
 10
-1.320559680405196
 20
0.0500000100000193
 30
0.0
  0
VERTEX
  5
ED64
330
ED60
100
AcDbEntity
  8
Pel_Clad
100
AcDbVertex
100
AcDb2dVertex
 10
0.0
 20
0.0500000100000193
 30
0.0
  0
VERTEX
  5
ED65
330
ED60
100
AcDbEntity
  8
Pel_Clad
100
AcDbVertex
100
AcDb2dVertex
 10
-0.1140000000000008
 20
0.1300000000000274
 30
0.0
  0
VERTEX
  5
ED66
330
ED60
100
AcDbEntity
  8
Pel_Clad
100
AcDbVertex
100
AcDb2dVertex
 10
-0.1491673466342043
 20
0.0500000100000193
 30
0.0
  0
VERTEX
  5
ED67
330
ED60
100
AcDbEntity
  8
Pel_Clad
100
AcDbVertex
100
AcDb2dVertex
 10
0.0
 20
0.0500000100000193
 30
0.0
  0
VERTEX
  5
ED68
330
ED60
100
AcDbEntity
  8
Pel_Clad
100
AcDbVertex
100
AcDb2dVertex
 10
0.0
 20
0.0
 30
0.0
  0
VERTEX
  5
ED69
330
ED60
100
AcDbEntity
  8
Pel_Clad
100
AcDbVertex
100
AcDb2dVertex
 10
-1.320559680405196
 20
0.0
 30
0.0
 42
-0.4142135623730951
  0
VERTEX
  5
ED6A
330
ED60
100
AcDbEntity
  8
Pel_Clad
100
AcDbVertex
100
AcDb2dVertex
 10
-1.452474600405196
 20
0.131914920000014
 30
0.0
  0
VERTEX
  5
ED6B
330
ED60
100
AcDbEntity
  8
Pel_Clad
100
AcDbVertex
100
AcDb2dVertex
 10
-1.452474600405196
 20
4.488000048998543
 30
0.0
 42
-0.4142135623730951
  0
VERTEX
  5
ED6C
330
ED60
100
AcDbEntity
  8
Pel_Clad
100
AcDbVertex
100
AcDb2dVertex
 10
-1.320559680405196
 20
4.619914968998556
 30
0.0
  0
VERTEX
  5
ED6D
330
ED60
100
AcDbEntity
  8
Pel_Clad
100
AcDbVertex
100
AcDb2dVertex
 10
0.0
 20
4.619914968998556
 30
0.0
  0
VERTEX
  5
ED6E
330
ED60
100
AcDbEntity
  8
Pel_Clad
100
AcDbVertex
100
AcDb2dVertex
 10
0.0
 20
4.569914958998538
 30
0.0
  0
VERTEX
  5
ED6F
330
ED60
100
AcDbEntity
  8
Pel_Clad
100
AcDbVertex
100
AcDb2dVertex
 10
-0.1491673466342043
 20
4.569914958998538
 30
0.0
  0
VERTEX
  5
ED70
330
ED60
100
AcDbEntity
  8
Pel_Clad
100
AcDbVertex
100
AcDb2dVertex
 10
-0.1140000000000008
 20
4.489914968998533
 30
0.0
  0
VERTEX
  5
ED71
330
ED60
100
AcDbEntity
  8
Pel_Clad
100
AcDbVertex
100
AcDb2dVertex
 10
0.0
 20
4.569914958998538
 30
0.0
  0
VERTEX
  5
ED72
330
ED60
100
AcDbEntity
  8
Pel_Clad
100
AcDbVertex
100
AcDb2dVertex
 10
-1.320559680405196
 20
4.569914958998538
 30
0.0
 42
0.4142135623730951
  0
SEQEND
  5
ED73
330
ED60
100
AcDbEntity
  8
Pel_Clad
  0
ENDBLK
  5
ED74
330
ED5C
100
AcDbEntity
  8
0
100
AcDbBlockEnd
  0
BLOCK
  5
ED78
330
ED75
100
AcDbEntity
  8
0
100
AcDbBlockBegin
  2
49A1M103
 70
     0
 10
0.0
 20
0.0
 30
0.0
  3
49A1M103
  1

  0
POLYLINE
  5
ED79
330
ED75
100
AcDbEntity
  8
Pel_Clad
100
AcDb2dPolyline
 66
     1
 10
0.0
 20
0.0
 30
0.0
 70
     1
  0
VERTEX
  5
ED7A
330
ED79
100
AcDbEntity
  8
Pel_Clad
100
AcDbVertex
100
AcDb2dVertex
 10
2.599921046849849
 20
0.775757044486138
 30
0.0
 42
-0.0874886635259244
  0
VERTEX
  5
ED7B
330
ED79
100
AcDbEntity
  8
Pel_Clad
100
AcDbVertex
100
AcDb2dVertex
 10
2.628369796540351
 20
0.7757570444861273
 30
0.0
  0
VERTEX
  5
ED7C
330
ED79
100
AcDbEntity
  8
Pel_Clad
100
AcDbVertex
100
AcDb2dVertex
 10
5.152645062957191
 20
0.330659208281407
 30
0.0
 42
-0.4142135623730951
  0
VERTEX
  5
ED7D
330
ED79
100
AcDbEntity
  8
Pel_Clad
100
AcDbVertex
100
AcDb2dVertex
 10
5.219091126567222
 20
0.2357643949808548
 30
0.0
  0
VERTEX
  5
ED7E
330
ED79
100
AcDbEntity
  8
Pel_Clad
100
AcDbVertex
100
AcDb2dVertex
 10
5.179050445891518
 20
0.0086824106198371
 30
0.0
  0
VERTEX
  5
ED7F
330
ED79
100
AcDbEntity
  8
Pel_Clad
100
AcDbVertex
100
AcDb2dVertex
 10
5.204953083801981
 20
0.1555835700814541
 30
0.0
  0
VERTEX
  5
ED80
330
ED79
100
AcDbEntity
  8
Pel_Clad
100
AcDbVertex
100
AcDb2dVertex
 10
5.120061727752663
 20
0.1348423469401183
 30
0.0
  0
VERTEX
  5
ED81
330
ED79
100
AcDbEntity
  8
Pel_Clad
100
AcDbVertex
100
AcDb2dVertex
 10
5.179050445891518
 20
0.0086824106198371
 30
0.0
  0
VERTEX
  5
ED82
330
ED79
100
AcDbEntity
  8
Pel_Clad
100
AcDbVertex
100
AcDb2dVertex
 10
5.228290843390198
 20
0.0000000000000036
 30
0.0
  0
VERTEX
  5
ED83
330
ED79
100
AcDbEntity
  8
Pel_Clad
100
AcDbVertex
100
AcDb2dVertex
 10
5.268331524065898
 20
0.2270819843610212
 30
0.0
 42
0.4142135623730951
  0
VERTEX
  5
ED84
330
ED79
100
AcDbEntity
  8
Pel_Clad
100
AcDbVertex
100
AcDb2dVertex
 10
5.161327473577022
 20
0.3798996057800856
 30
0.0
  0
VERTEX
  5
ED85
330
ED79
100
AcDbEntity
  8
Pel_Clad
100
AcDbVertex
100
AcDb2dVertex
 10
2.637052207160184
 20
0.8249974419848058
 30
0.0
 42
0.0874886635259248
  0
VERTEX
  5
ED86
330
ED79
100
AcDbEntity
  8
Pel_Clad
100
AcDbVertex
100
AcDb2dVertex
 10
2.591238636230015
 20
0.8249974419848092
 30
0.0
  0
VERTEX
  5
ED87
330
ED79
100
AcDbEntity
  8
Pel_Clad
100
AcDbVertex
100
AcDb2dVertex
 10
0.0669633698131733
 20
0.3798996057800856
 30
0.0
 42
0.4142135623730951
  0
VERTEX
  5
ED88
330
ED79
100
AcDbEntity
  8
Pel_Clad
100
AcDbVertex
100
AcDb2dVertex
 10
-0.0400406806757019
 20
0.2270819843610177
 30
0.0
  0
VERTEX
  5
ED89
330
ED79
100
AcDbEntity
  8
Pel_Clad
100
AcDbVertex
100
AcDb2dVertex
 10
0.0
 20
0.0
 30
0.0
  0
VERTEX
  5
ED8A
330
ED79
100
AcDbEntity
  8
Pel_Clad
100
AcDbVertex
100
AcDb2dVertex
 10
0.0492403974986786
 20
0.0086824106198407
 30
0.0
  0
VERTEX
  5
ED8B
330
ED79
100
AcDbEntity
  8
Pel_Clad
100
AcDbVertex
100
AcDb2dVertex
 10
0.1082291156375419
 20
0.1348423469401148
 30
0.0
  0
VERTEX
  5
ED8C
330
ED79
100
AcDbEntity
  8
Pel_Clad
100
AcDbVertex
100
AcDb2dVertex
 10
0.0233377595882196
 20
0.1555835700814576
 30
0.0
  0
VERTEX
  5
ED8D
330
ED79
100
AcDbEntity
  8
Pel_Clad
100
AcDbVertex
100
AcDb2dVertex
 10
0.0492403974986786
 20
0.0086824106198407
 30
0.0
  0
VERTEX
  5
ED8E
330
ED79
100
AcDbEntity
  8
Pel_Clad
100
AcDbVertex
100
AcDb2dVertex
 10
0.0091997168229767
 20
0.2357643949808512
 30
0.0
 42
-0.4142135623730951
  0
VERTEX
  5
ED8F
330
ED79
100
AcDbEntity
  8
Pel_Clad
100
AcDbVertex
100
AcDb2dVertex
 10
0.0756457804330069
 20
0.3306592082814106
 30
0.0
  0
SEQEND
  5
ED90
330
ED79
100
AcDbEntity
  8
Pel_Clad
  0
ENDBLK
  5
ED91
330
ED75
100
AcDbEntity
  8
0
100
AcDbBlockEnd
  0
BLOCK
  5
ED95
330
ED92
100
AcDbEntity
  8
0
100
AcDbBlockBegin
  2
49A1M104
 70
     0
 10
0.0
 20
0.0
 30
0.0
  3
49A1M104
  1

  0
POLYLINE
  5
ED96
330
ED92
100
AcDbEntity
  8
Pel_Clad
100
AcDb2dPolyline
 66
     1
 10
0.0
 20
0.0
 30
0.0
 70
     1
  0
VERTEX
  5
ED97
330
ED96
100
AcDbEntity
  8
Pel_Clad
100
AcDbVertex
100
AcDb2dVertex
 10
0.0
 20
0.0500000100000193
 30
0.0
  0
VERTEX
  5
ED98
330
ED96
100
AcDbEntity
  8
Pel_Clad
100
AcDbVertex
100
AcDb2dVertex
 10
-0.1140000000000008
 20
0.130000000000031
 30
0.0
  0
VERTEX
  5
ED99
330
ED96
100
AcDbEntity
  8
Pel_Clad
100
AcDbVertex
100
AcDb2dVertex
 10
-0.1491673466342043
 20
0.0500000100000193
 30
0.0
  0
VERTEX
  5
ED9A
330
ED96
100
AcDbEntity
  8
Pel_Clad
100
AcDbVertex
100
AcDb2dVertex
 10
0.0
 20
0.0500000100000193
 30
0.0
  0
VERTEX
  5
ED9B
330
ED96
100
AcDbEntity
  8
Pel_Clad
100
AcDbVertex
100
AcDb2dVertex
 10
-0.2305850900000061
 20
0.0500000100000193
 30
0.0
 42
-0.4142135623730951
  0
VERTEX
  5
ED9C
330
ED96
100
AcDbEntity
  8
Pel_Clad
100
AcDbVertex
100
AcDb2dVertex
 10
-0.3125000000000009
 20
0.131914920000014
 30
0.0
  0
VERTEX
  5
ED9D
330
ED96
100
AcDbEntity
  8
Pel_Clad
100
AcDbVertex
100
AcDb2dVertex
 10
-0.3125000000000009
 20
2.627660100000014
 30
0.0
 42
-0.4142135623730951
  0
VERTEX
  5
ED9E
330
ED96
100
AcDbEntity
  8
Pel_Clad
100
AcDbVertex
100
AcDb2dVertex
 10
-0.2305850900000061
 20
2.709575010000008
 30
0.0
  0
VERTEX
  5
ED9F
330
ED96
100
AcDbEntity
  8
Pel_Clad
100
AcDbVertex
100
AcDb2dVertex
 10
2.265160089999993
 20
2.709575010000008
 30
0.0
 42
-0.4142135623730951
  0
VERTEX
  5
EDA0
330
ED96
100
AcDbEntity
  8
Pel_Clad
100
AcDbVertex
100
AcDb2dVertex
 10
2.347074999999988
 20
2.627660100000014
 30
0.0
  0
VERTEX
  5
EDA1
330
ED96
100
AcDbEntity
  8
Pel_Clad
100
AcDbVertex
100
AcDb2dVertex
 10
2.347074999999988
 20
2.397075010000008
 30
0.0
  0
VERTEX
  5
EDA2
330
ED96
100
AcDbEntity
  8
Pel_Clad
100
AcDbVertex
100
AcDb2dVertex
 10
2.267075009999977
 20
2.511075010000013
 30
0.0
  0
VERTEX
  5
EDA3
330
ED96
100
AcDbEntity
  8
Pel_Clad
100
AcDbVertex
100
AcDb2dVertex
 10
2.347074999999988
 20
2.546242356634215
 30
0.0
  0
VERTEX
  5
EDA4
330
ED96
100
AcDbEntity
  8
Pel_Clad
100
AcDbVertex
100
AcDb2dVertex
 10
2.347074999999988
 20
2.397075010000008
 30
0.0
  0
VERTEX
  5
EDA5
330
ED96
100
AcDbEntity
  8
Pel_Clad
100
AcDbVertex
100
AcDb2dVertex
 10
2.397075009999979
 20
2.397075010000008
 30
0.0
  0
VERTEX
  5
EDA6
330
ED96
100
AcDbEntity
  8
Pel_Clad
100
AcDbVertex
100
AcDb2dVertex
 10
2.397075009999979
 20
2.627660100000014
 30
0.0
 42
0.4142135623730951
  0
VERTEX
  5
EDA7
330
ED96
100
AcDbEntity
  8
Pel_Clad
100
AcDbVertex
100
AcDb2dVertex
 10
2.265160089999993
 20
2.759575019999998
 30
0.0
  0
VERTEX
  5
EDA8
330
ED96
100
AcDbEntity
  8
Pel_Clad
100
AcDbVertex
100
AcDb2dVertex
 10
-0.2305850900000061
 20
2.759575019999998
 30
0.0
 42
0.4142135623730951
  0
VERTEX
  5
EDA9
330
ED96
100
AcDbEntity
  8
Pel_Clad
100
AcDbVertex
100
AcDb2dVertex
 10
-0.3625000099999918
 20
2.627660100000014
 30
0.0
  0
VERTEX
  5
EDAA
330
ED96
100
AcDbEntity
  8
Pel_Clad
100
AcDbVertex
100
AcDb2dVertex
 10
-0.3625000099999918
 20
0.131914920000014
 30
0.0
 42
0.4142135623730951
  0
VERTEX
  5
EDAB
330
ED96
100
AcDbEntity
  8
Pel_Clad
100
AcDbVertex
100
AcDb2dVertex
 10
-0.2305850900000061
 20
0.0
 30
0.0
  0
VERTEX
  5
EDAC
330
ED96
100
AcDbEntity
  8
Pel_Clad
100
AcDbVertex
100
AcDb2dVertex
 10
0.0
 20
0.0
 30
0.0
  0
SEQEND
  5
EDAD
330
ED96
100
AcDbEntity
  8
Pel_Clad
  0
ENDBLK
  5
EDAE
330
ED92
100
AcDbEntity
  8
0
100
AcDbBlockEnd
  0
BLOCK
  5
EDB2
330
EDAF
100
AcDbEntity
  8
0
100
AcDbBlockBegin
  2
49A1M101
 70
     0
 10
0.0
 20
0.0
 30
0.0
  3
49A1M101
  1

  0
POLYLINE
  5
EDB3
330
EDAF
100
AcDbEntity
  8
Pel_Clad
100
AcDb2dPolyline
 66
     1
 10
0.0
 20
0.0
 30
0.0
 70
     1
  0
VERTEX
  5
EDB4
330
EDB3
100
AcDbEntity
  8
Pel_Clad
100
AcDbVertex
100
AcDb2dVertex
 10
-1.577146197738016
 20
0.0819149100000232
 30
0.0
 42
0.4142135623730951
  0
VERTEX
  5
EDB5
330
EDB3
100
AcDbEntity
  8
Pel_Clad
100
AcDbVertex
100
AcDb2dVertex
 10
-1.495231287738021
 20
0.0
 30
0.0
  0
VERTEX
  5
EDB6
330
EDB3
100
AcDbEntity
  8
Pel_Clad
100
AcDbVertex
100
AcDb2dVertex
 10
0.0
 20
0.0
 30
0.0
  0
VERTEX
  5
EDB7
330
EDB3
100
AcDbEntity
  8
Pel_Clad
100
AcDbVertex
100
AcDb2dVertex
 10
0.0
 20
-0.0500000099999909
 30
0.0
  0
VERTEX
  5
EDB8
330
EDB3
100
AcDbEntity
  8
Pel_Clad
100
AcDbVertex
100
AcDb2dVertex
 10
-1.495231287738021
 20
-0.0500000099999909
 30
0.0
 42
-0.4142135623730951
  0
VERTEX
  5
EDB9
330
EDB3
100
AcDbEntity
  8
Pel_Clad
100
AcDbVertex
100
AcDb2dVertex
 10
-1.627146207738006
 20
0.0819149100000232
 30
0.0
  0
VERTEX
  5
EDBA
330
EDB3
100
AcDbEntity
  8
Pel_Clad
100
AcDbVertex
100
AcDb2dVertex
 10
-1.627146207738006
 20
4.438000038998551
 30
0.0
 42
-0.4142135623730951
  0
VERTEX
  5
EDBB
330
EDB3
100
AcDbEntity
  8
Pel_Clad
100
AcDbVertex
100
AcDb2dVertex
 10
-1.495231287738021
 20
4.569914958998566
 30
0.0
  0
VERTEX
  5
EDBC
330
EDB3
100
AcDbEntity
  8
Pel_Clad
100
AcDbVertex
100
AcDb2dVertex
 10
-0.0174502700004951
 20
4.569914958998566
 30
0.0
  0
VERTEX
  5
EDBD
330
EDB3
100
AcDbEntity
  8
Pel_Clad
100
AcDbVertex
100
AcDb2dVertex
 10
-0.0174502700004951
 20
4.519914948998546
 30
0.0
  0
VERTEX
  5
EDBE
330
EDB3
100
AcDbEntity
  8
Pel_Clad
100
AcDbVertex
100
AcDb2dVertex
 10
-1.495231287738021
 20
4.519914948998546
 30
0.0
 42
0.4142135623730951
  0
VERTEX
  5
EDBF
330
EDB3
100
AcDbEntity
  8
Pel_Clad
100
AcDbVertex
100
AcDb2dVertex
 10
-1.577146197738016
 20
4.438000038998551
 30
0.0
  0
SEQEND
  5
EDC0
330
EDB3
100
AcDbEntity
  8
Pel_Clad
  0
ENDBLK
  5
EDC1
330
EDAF
100
AcDbEntity
  8
0
100
AcDbBlockEnd
  0
BLOCK
  5
EDC5
330
EDC2
100
AcDbEntity
  8
0
100
AcDbBlockBegin
  2
49A1M102
 70
     0
 10
0.0
 20
0.0
 30
0.0
  3
49A1M102
  1

  0
POLYLINE
  5
EDC6
330
EDC2
100
AcDbEntity
  8
Pel_Clad
100
AcDb2dPolyline
 66
     1
 10
0.0
 20
0.0
 30
0.0
 70
     1
  0
VERTEX
  5
EDC7
330
EDC6
100
AcDbEntity
  8
Pel_Clad
100
AcDbVertex
100
AcDb2dVertex
 10
-1.378942096462139
 20
1.036623396711262
 30
0.0
 42
0.4142135623730951
  0
VERTEX
  5
EDC8
330
EDC6
100
AcDbEntity
  8
Pel_Clad
100
AcDbVertex
100
AcDb2dVertex
 10
-1.297027186462144
 20
0.9547084867112689
 30
0.0
  0
VERTEX
  5
EDC9
330
EDC6
100
AcDbEntity
  8
Pel_Clad
100
AcDbVertex
100
AcDb2dVertex
 10
-0.1319149199999856
 20
0.9547084867112689
 30
0.0
 42
-0.4142135623730951
  0
VERTEX
  5
EDCA
330
EDC6
100
AcDbEntity
  8
Pel_Clad
100
AcDbVertex
100
AcDb2dVertex
 10
0.0
 20
0.8227935667112831
 30
0.0
  0
VERTEX
  5
EDCB
330
EDC6
100
AcDbEntity
  8
Pel_Clad
100
AcDbVertex
100
AcDb2dVertex
 10
0.0
 20
0.0
 30
0.0
  0
VERTEX
  5
EDCC
330
EDC6
100
AcDbEntity
  8
Pel_Clad
100
AcDbVertex
100
AcDb2dVertex
 10
-0.0500000099999909
 20
0.0
 30
0.0
  0
VERTEX
  5
EDCD
330
EDC6
100
AcDbEntity
  8
Pel_Clad
100
AcDbVertex
100
AcDb2dVertex
 10
-0.0500000099999909
 20
0.8227935667112831
 30
0.0
 42
0.4142135623730951
  0
VERTEX
  5
EDCE
330
EDC6
100
AcDbEntity
  8
Pel_Clad
100
AcDbVertex
100
AcDb2dVertex
 10
-0.1319149199999856
 20
0.9047084767112778
 30
0.0
  0
VERTEX
  5
EDCF
330
EDC6
100
AcDbEntity
  8
Pel_Clad
100
AcDbVertex
100
AcDb2dVertex
 10
-1.297027186462144
 20
0.9047084767112778
 30
0.0
 42
-0.4142135623730951
  0
VERTEX
  5
EDD0
330
EDC6
100
AcDbEntity
  8
Pel_Clad
100
AcDbVertex
100
AcDb2dVertex
 10
-1.428942106462129
 20
1.036623396711262
 30
0.0
  0
VERTEX
  5
EDD1
330
EDC6
100
AcDbEntity
  8
Pel_Clad
100
AcDbVertex
100
AcDb2dVertex
 10
-1.428942106462129
 20
4.173492829402107
 30
0.0
 42
-0.4142135623730951
  0
VERTEX
  5
EDD2
330
EDC6
100
AcDbEntity
  8
Pel_Clad
100
AcDbVertex
100
AcDb2dVertex
 10
-1.297027186462144
 20
4.305407749402093
 30
0.0
  0
VERTEX
  5
EDD3
330
EDC6
100
AcDbEntity
  8
Pel_Clad
100
AcDbVertex
100
AcDb2dVertex
 10
-0.1319149199999856
 20
4.305407749402093
 30
0.0
 42
0.4142135623730951
  0
VERTEX
  5
EDD4
330
EDC6
100
AcDbEntity
  8
Pel_Clad
100
AcDbVertex
100
AcDb2dVertex
 10
-0.0500000099999909
 20
4.387322659402116
 30
0.0
  0
VERTEX
  5
EDD5
330
EDC6
100
AcDbEntity
  8
Pel_Clad
100
AcDbVertex
100
AcDb2dVertex
 10
-0.0500000099999909
 20
5.210116226113369
 30
0.0
  0
VERTEX
  5
EDD6
330
EDC6
100
AcDbEntity
  8
Pel_Clad
100
AcDbVertex
100
AcDb2dVertex
 10
0.0
 20
5.210116226113369
 30
0.0
  0
VERTEX
  5
EDD7
330
EDC6
100
AcDbEntity
  8
Pel_Clad
100
AcDbVertex
100
AcDb2dVertex
 10
0.0
 20
4.387322659402116
 30
0.0
 42
-0.4142135623730951
  0
VERTEX
  5
EDD8
330
EDC6
100
AcDbEntity
  8
Pel_Clad
100
AcDbVertex
100
AcDb2dVertex
 10
-0.1319149199999856
 20
4.255407739402129
 30
0.0
  0
VERTEX
  5
EDD9
330
EDC6
100
AcDbEntity
  8
Pel_Clad
100
AcDbVertex
100
AcDb2dVertex
 10
-1.297027186462144
 20
4.255407739402102
 30
0.0
 42
0.4142135623730951
  0
VERTEX
  5
EDDA
330
EDC6
100
AcDbEntity
  8
Pel_Clad
100
AcDbVertex
100
AcDb2dVertex
 10
-1.378942096462139
 20
4.173492829402107
 30
0.0
  0
SEQEND
  5
EDDB
330
EDC6
100
AcDbEntity
  8
Pel_Clad
  0
ENDBLK
  5
EDDC
330
EDC2
100
AcDbEntity
  8
0
100
AcDbBlockEnd
  0
BLOCK
  5
EDE0
330
EDDD
100
AcDbEntity
  8
0
100
AcDbBlockBegin
  2
49A1M105
 70
     0
 10
0.0
 20
0.0
 30
0.0
  3
49A1M105
  1

  0
POLYLINE
  5
EDE1
330
EDDD
100
AcDbEntity
  8
Pel_Clad
100
AcDb2dPolyline
 66
     1
 10
0.0
 20
0.0
 30
0.0
 70
     1
  0
VERTEX
  5
EDE2
330
EDE1
100
AcDbEntity
  8
Pel_Clad
100
AcDbVertex
100
AcDb2dVertex
 10
-2.709575009999979
 20
0.2305850899999768
 30
0.0
 42
-0.4142135623730951
  0
VERTEX
  5
EDE3
330
EDE1
100
AcDbEntity
  8
Pel_Clad
100
AcDbVertex
100
AcDb2dVertex
 10
-2.627660099999984
 20
0.3125
 30
0.0
  0
VERTEX
  5
EDE4
330
EDE1
100
AcDbEntity
  8
Pel_Clad
100
AcDbVertex
100
AcDb2dVertex
 10
-0.1319149199999856
 20
0.3125
 30
0.0
 42
-0.4142135623730951
  0
VERTEX
  5
EDE5
330
EDE1
100
AcDbEntity
  8
Pel_Clad
100
AcDbVertex
100
AcDb2dVertex
 10
-0.0500000099999909
 20
0.2305850900000053
 30
0.0
  0
VERTEX
  5
EDE6
330
EDE1
100
AcDbEntity
  8
Pel_Clad
100
AcDbVertex
100
AcDb2dVertex
 10
-0.0500000099999909
 20
0.0
 30
0.0
  0
VERTEX
  5
EDE7
330
EDE1
100
AcDbEntity
  8
Pel_Clad
100
AcDbVertex
100
AcDb2dVertex
 10
-0.1300000000000026
 20
0.1140000000000043
 30
0.0
  0
VERTEX
  5
EDE8
330
EDE1
100
AcDbEntity
  8
Pel_Clad
100
AcDbVertex
100
AcDb2dVertex
 10
-0.0500000099999909
 20
0.1491673466342078
 30
0.0
  0
VERTEX
  5
EDE9
330
EDE1
100
AcDbEntity
  8
Pel_Clad
100
AcDbVertex
100
AcDb2dVertex
 10
-0.0500000099999909
 20
0.0
 30
0.0
  0
VERTEX
  5
EDEA
330
EDE1
100
AcDbEntity
  8
Pel_Clad
100
AcDbVertex
100
AcDb2dVertex
 10
0.0
 20
0.0
 30
0.0
  0
VERTEX
  5
EDEB
330
EDE1
100
AcDbEntity
  8
Pel_Clad
100
AcDbVertex
100
AcDb2dVertex
 10
0.0
 20
0.2305850900000053
 30
0.0
 42
0.4142135623730951
  0
VERTEX
  5
EDEC
330
EDE1
100
AcDbEntity
  8
Pel_Clad
100
AcDbVertex
100
AcDb2dVertex
 10
-0.1319149199999856
 20
0.3625000099999909
 30
0.0
  0
VERTEX
  5
EDED
330
EDE1
100
AcDbEntity
  8
Pel_Clad
100
AcDbVertex
100
AcDb2dVertex
 10
-2.627660099999984
 20
0.3625000099999909
 30
0.0
 42
0.4142135623730951
  0
VERTEX
  5
EDEE
330
EDE1
100
AcDbEntity
  8
Pel_Clad
100
AcDbVertex
100
AcDb2dVertex
 10
-2.75957501999997
 20
0.2305850899999768
 30
0.0
  0
VERTEX
  5
EDEF
330
EDE1
100
AcDbEntity
  8
Pel_Clad
100
AcDbVertex
100
AcDb2dVertex
 10
-2.75957501999997
 20
-2.265160089999993
 30
0.0
 42
0.4142135623730951
  0
VERTEX
  5
EDF0
330
EDE1
100
AcDbEntity
  8
Pel_Clad
100
AcDbVertex
100
AcDb2dVertex
 10
-2.627660099999984
 20
-2.397075010000008
 30
0.0
  0
VERTEX
  5
EDF1
330
EDE1
100
AcDbEntity
  8
Pel_Clad
100
AcDbVertex
100
AcDb2dVertex
 10
-2.39707500999998
 20
-2.397075010000008
 30
0.0
  0
VERTEX
  5
EDF2
330
EDE1
100
AcDbEntity
  8
Pel_Clad
100
AcDbVertex
100
AcDb2dVertex
 10
-2.39707500999998
 20
-2.347075000000018
 30
0.0
  0
VERTEX
  5
EDF3
330
EDE1
100
AcDbEntity
  8
Pel_Clad
100
AcDbVertex
100
AcDb2dVertex
 10
-2.627660099999984
 20
-2.347075000000018
 30
0.0
 42
-0.4142135623730951
  0
VERTEX
  5
EDF4
330
EDE1
100
AcDbEntity
  8
Pel_Clad
100
AcDbVertex
100
AcDb2dVertex
 10
-2.709575009999979
 20
-2.265160089999993
 30
0.0
  0
SEQEND
  5
EDF5
330
EDE1
100
AcDbEntity
  8
Pel_Clad
  0
ENDBLK
  5
EDF6
330
EDDD
100
AcDbEntity
  8
0
100
AcDbBlockEnd
  0
BLOCK
  5
EDFA
330
EDF7
100
AcDbEntity
  8
0
100
AcDbBlockBegin
  2
49A1M106
 70
     0
 10
0.0
 20
0.0
 30
0.0
  3
49A1M106
  1

  0
POLYLINE
  5
EDFB
330
EDF7
100
AcDbEntity
  8
Pel_Clad
100
AcDb2dPolyline
 66
     1
 10
0.0
 20
0.0
 30
0.0
 70
     1
  0
VERTEX
  5
EDFC
330
EDFB
100
AcDbEntity
  8
Pel_Clad
100
AcDbVertex
100
AcDb2dVertex
 10
-3.119825841513716
 20
-2.842553760000015
 30
0.0
  0
VERTEX
  5
EDFD
330
EDFB
100
AcDbEntity
  8
Pel_Clad
100
AcDbVertex
100
AcDb2dVertex
 10
-3.069825831513724
 20
-2.842553760000015
 30
0.0
  0
VERTEX
  5
EDFE
330
EDFB
100
AcDbEntity
  8
Pel_Clad
100
AcDbVertex
100
AcDb2dVertex
 10
-3.069825831513724
 20
-0.131914920000014
 30
0.0
 42
-0.4142135623730951
  0
VERTEX
  5
EDFF
330
EDFB
100
AcDbEntity
  8
Pel_Clad
100
AcDbVertex
100
AcDb2dVertex
 10
-2.987910921513729
 20
-0.0500000099999909
 30
0.0
  0
VERTEX
  5
EE00
330
EDFB
100
AcDbEntity
  8
Pel_Clad
100
AcDbVertex
100
AcDb2dVertex
 10
0.0
 20
-0.050000009999998
 30
0.0
  0
VERTEX
  5
EE01
330
EDFB
100
AcDbEntity
  8
Pel_Clad
100
AcDbVertex
100
AcDb2dVertex
 10
-0.1140000000000008
 20
-0.1300000000000097
 30
0.0
  0
VERTEX
  5
EE02
330
EDFB
100
AcDbEntity
  8
Pel_Clad
100
AcDbVertex
100
AcDb2dVertex
 10
-0.1491673466342043
 20
-0.050000009999998
 30
0.0
  0
VERTEX
  5
EE03
330
EDFB
100
AcDbEntity
  8
Pel_Clad
100
AcDbVertex
100
AcDb2dVertex
 10
0.0
 20
-0.050000009999998
 30
0.0
  0
VERTEX
  5
EE04
330
EDFB
100
AcDbEntity
  8
Pel_Clad
100
AcDbVertex
100
AcDb2dVertex
 10
0.0
 20
0.0
 30
0.0
  0
VERTEX
  5
EE05
330
EDFB
100
AcDbEntity
  8
Pel_Clad
100
AcDbVertex
100
AcDb2dVertex
 10
-2.987910921513729
 20
0.0
 30
0.0
 42
0.4142135623730951
  0
VERTEX
  5
EE06
330
EDFB
100
AcDbEntity
  8
Pel_Clad
100
AcDbVertex
100
AcDb2dVertex
 10
-3.119825841513716
 20
-0.131914920000014
 30
0.0
  0
SEQEND
  5
EE07
330
EDFB
100
AcDbEntity
  8
Pel_Clad
  0
ENDBLK
  5
EE08
330
EDF7
100
AcDbEntity
  8
0
100
AcDbBlockEnd
  0
BLOCK
  5
EE0C
330
EE09
100
AcDbEntity
  8
0
100
AcDbBlockBegin
  2
49A1M109
 70
     0
 10
0.0
 20
0.0
 30
0.0
  3
49A1M109
  1

  0
POLYLINE
  5
EE0D
330
EE09
100
AcDbEntity
  8
Pel_Clad
100
AcDb2dPolyline
 66
     1
 10
0.0
 20
0.0
 30
0.0
 70
     1
  0
VERTEX
  5
EE0E
330
EE0D
100
AcDbEntity
  8
Pel_Clad
100
AcDbVertex
100
AcDb2dVertex
 10
-0.9240927000034202
 20
2.339779682225183
 30
0.0
 42
0.4142135623730951
  0
VERTEX
  5
EE0F
330
EE0D
100
AcDbEntity
  8
Pel_Clad
100
AcDbVertex
100
AcDb2dVertex
 10
-1.006007610003422
 20
2.421694592225179
 30
0.0
  0
VERTEX
  5
EE10
330
EE0D
100
AcDbEntity
  8
Pel_Clad
100
AcDbVertex
100
AcDb2dVertex
 10
-2.50403742952131
 20
2.421694592225179
 30
0.0
  0
VERTEX
  5
EE11
330
EE0D
100
AcDbEntity
  8
Pel_Clad
100
AcDbVertex
100
AcDb2dVertex
 10
-2.50403742952131
 20
2.47169460222517
 30
0.0
  0
VERTEX
  5
EE12
330
EE0D
100
AcDbEntity
  8
Pel_Clad
100
AcDbVertex
100
AcDb2dVertex
 10
-1.006007610003422
 20
2.47169460222517
 30
0.0
 42
-0.4142135623730951
  0
VERTEX
  5
EE13
330
EE0D
100
AcDbEntity
  8
Pel_Clad
100
AcDbVertex
100
AcDb2dVertex
 10
-0.8740926900034081
 20
2.339779682225183
 30
0.0
  0
VERTEX
  5
EE14
330
EE0D
100
AcDbEntity
  8
Pel_Clad
100
AcDbVertex
100
AcDb2dVertex
 10
-0.8740926900034081
 20
0.0819149100000232
 30
0.0
 42
0.4142135623730951
  0
VERTEX
  5
EE15
330
EE0D
100
AcDbEntity
  8
Pel_Clad
100
AcDbVertex
100
AcDb2dVertex
 10
-0.7921777800034136
 20
0.0
 30
0.0
  0
VERTEX
  5
EE16
330
EE0D
100
AcDbEntity
  8
Pel_Clad
100
AcDbVertex
100
AcDb2dVertex
 10
0.0
 20
0.0
 30
0.0
  0
VERTEX
  5
EE17
330
EE0D
100
AcDbEntity
  8
Pel_Clad
100
AcDbVertex
100
AcDb2dVertex
 10
-0.113999999999999
 20
0.079999990000009
 30
0.0
  0
VERTEX
  5
EE18
330
EE0D
100
AcDbEntity
  8
Pel_Clad
100
AcDbVertex
100
AcDb2dVertex
 10
-0.1491673466342025
 20
0.0
 30
0.0
  0
VERTEX
  5
EE19
330
EE0D
100
AcDbEntity
  8
Pel_Clad
100
AcDbVertex
100
AcDb2dVertex
 10
0.0
 20
0.0
 30
0.0
  0
VERTEX
  5
EE1A
330
EE0D
100
AcDbEntity
  8
Pel_Clad
100
AcDbVertex
100
AcDb2dVertex
 10
0.0
 20
-0.0500000099999909
 30
0.0
  0
VERTEX
  5
EE1B
330
EE0D
100
AcDbEntity
  8
Pel_Clad
100
AcDbVertex
100
AcDb2dVertex
 10
-0.7921777800034136
 20
-0.0500000099999909
 30
0.0
 42
-0.4142135623730951
  0
VERTEX
  5
EE1C
330
EE0D
100
AcDbEntity
  8
Pel_Clad
100
AcDbVertex
100
AcDb2dVertex
 10
-0.9240927000034202
 20
0.0819149100000232
 30
0.0
  0
SEQEND
  5
EE1D
330
EE0D
100
AcDbEntity
  8
Pel_Clad
  0
ENDBLK
  5
EE1E
330
EE09
100
AcDbEntity
  8
0
100
AcDbBlockEnd
  0
BLOCK
  5
EE22
330
EE1F
100
AcDbEntity
  8
0
100
AcDbBlockBegin
  2
49A1M110
 70
     0
 10
0.0
 20
0.0
 30
0.0
  3
49A1M110
  1

  0
POLYLINE
  5
EE23
330
EE1F
100
AcDbEntity
  8
Pel_Clad
100
AcDb2dPolyline
 66
     1
 10
0.0
 20
0.0
 30
0.0
 70
     1
  0
VERTEX
  5
EE24
330
EE23
100
AcDbEntity
  8
Pel_Clad
100
AcDbVertex
100
AcDb2dVertex
 10
0.0
 20
0.0
 30
0.0
 42
-0.4142135623730951
  0
VERTEX
  5
EE25
330
EE23
100
AcDbEntity
  8
Pel_Clad
100
AcDbVertex
100
AcDb2dVertex
 10
-0.0819149100000161
 20
0.0819149100000232
 30
0.0
  0
VERTEX
  5
EE26
330
EE23
100
AcDbEntity
  8
Pel_Clad
100
AcDbVertex
100
AcDb2dVertex
 10
-0.081914910000009
 20
1.995121902814105
 30
0.0
 42
0.1989123673796596
  0
VERTEX
  5
EE27
330
EE23
100
AcDbEntity
  8
Pel_Clad
100
AcDbVertex
100
AcDb2dVertex
 10
-0.1205518955283225
 20
2.088399837285776
 30
0.0
  0
VERTEX
  5
EE28
330
EE23
100
AcDbEntity
  8
Pel_Clad
100
AcDbVertex
100
AcDb2dVertex
 10
-2.189527353452916
 20
4.157375295210399
 30
0.0
  0
VERTEX
  5
EE29
330
EE23
100
AcDbEntity
  8
Pel_Clad
100
AcDbVertex
100
AcDb2dVertex
 10
-2.22488269958331
 20
4.122019949079998
 30
0.0
  0
VERTEX
  5
EE2A
330
EE23
100
AcDbEntity
  8
Pel_Clad
100
AcDbVertex
100
AcDb2dVertex
 10
-0.155907241658717
 20
2.05304449115539
 30
0.0
 42
-0.1989123673796612
  0
VERTEX
  5
EE2B
330
EE23
100
AcDbEntity
  8
Pel_Clad
100
AcDbVertex
100
AcDb2dVertex
 10
-0.1319149200000069
 20
1.99512190281409
 30
0.0
  0
VERTEX
  5
EE2C
330
EE23
100
AcDbEntity
  8
Pel_Clad
100
AcDbVertex
100
AcDb2dVertex
 10
-0.1319149200000069
 20
0.0819149100000232
 30
0.0
 42
0.4142135623730948
  0
VERTEX
  5
EE2D
330
EE23
100
AcDbEntity
  8
Pel_Clad
100
AcDbVertex
100
AcDb2dVertex
 10
0.0
 20
-0.0500000099999767
 30
0.0
  0
VERTEX
  5
EE2E
330
EE23
100
AcDbEntity
  8
Pel_Clad
100
AcDbVertex
100
AcDb2dVertex
 10
0.2305850899999982
 20
-0.0500000099999909
 30
0.0
  0
VERTEX
  5
EE2F
330
EE23
100
AcDbEntity
  8
Pel_Clad
100
AcDbVertex
100
AcDb2dVertex
 10
0.2305850899999839
 20
0.0000000000000142
 30
0.0
  0
VERTEX
  5
EE30
330
EE23
100
AcDbEntity
  8
Pel_Clad
100
AcDbVertex
100
AcDb2dVertex
 10
0.1165850899999832
 20
0.0799999900000232
 30
0.0
  0
VERTEX
  5
EE31
330
EE23
100
AcDbEntity
  8
Pel_Clad
100
AcDbVertex
100
AcDb2dVertex
 10
0.0814177433657797
 20
0.0000000000000142
 30
0.0
  0
VERTEX
  5
EE32
330
EE23
100
AcDbEntity
  8
Pel_Clad
100
AcDbVertex
100
AcDb2dVertex
 10
0.2305850899999839
 20
0.0000000000000142
 30
0.0
  0
SEQEND
  5
EE33
330
EE23
100
AcDbEntity
  8
Pel_Clad
  0
ENDBLK
  5
EE34
330
EE1F
100
AcDbEntity
  8
0
100
AcDbBlockEnd
  0
BLOCK
  5
EE38
330
EE35
100
AcDbEntity
  8
0
100
AcDbBlockBegin
  2
49A1M111
 70
     0
 10
0.0
 20
0.0
 30
0.0
  3
49A1M111
  1

  0
POLYLINE
  5
EE39
330
EE35
100
AcDbEntity
  8
Pel_Clad
100
AcDb2dPolyline
 66
     1
 10
0.0
 20
0.0
 30
0.0
 70
     1
  0
VERTEX
  5
EE3A
330
EE39
100
AcDbEntity
  8
Pel_Clad
100
AcDbVertex
100
AcDb2dVertex
 10
0.2305850899999839
 20
-0.0500000099999927
 30
0.0
  0
VERTEX
  5
EE3B
330
EE39
100
AcDbEntity
  8
Pel_Clad
100
AcDbVertex
100
AcDb2dVertex
 10
0.2305850899999804
 20
0.0
 30
0.0
  0
VERTEX
  5
EE3C
330
EE39
100
AcDbEntity
  8
Pel_Clad
100
AcDbVertex
100
AcDb2dVertex
 10
0.1165850899999796
 20
0.0799999900000081
 30
0.0
  0
VERTEX
  5
EE3D
330
EE39
100
AcDbEntity
  8
Pel_Clad
100
AcDbVertex
100
AcDb2dVertex
 10
0.0814177433657797
 20
-0.0000000000000009
 30
0.0
  0
VERTEX
  5
EE3E
330
EE39
100
AcDbEntity
  8
Pel_Clad
100
AcDbVertex
100
AcDb2dVertex
 10
0.2305850899999804
 20
0.0
 30
0.0
  0
VERTEX
  5
EE3F
330
EE39
100
AcDbEntity
  8
Pel_Clad
100
AcDbVertex
100
AcDb2dVertex
 10
0.0
 20
0.0
 30
0.0
 42
-0.4142135623730998
  0
VERTEX
  5
EE40
330
EE39
100
AcDbEntity
  8
Pel_Clad
100
AcDbVertex
100
AcDb2dVertex
 10
-0.0819149100000196
 20
0.0819149100000019
 30
0.0
  0
VERTEX
  5
EE41
330
EE39
100
AcDbEntity
  8
Pel_Clad
100
AcDbVertex
100
AcDb2dVertex
 10
-0.0819149100000232
 20
1.434474962945295
 30
0.0
 42
-0.0655434628152388
  0
VERTEX
  5
EE42
330
EE39
100
AcDbEntity
  8
Pel_Clad
100
AcDbVertex
100
AcDb2dVertex
 10
-0.0791237271271577
 20
1.455676101731148
 30
0.0
  0
VERTEX
  5
EE43
330
EE39
100
AcDbEntity
  8
Pel_Clad
100
AcDbVertex
100
AcDb2dVertex
 10
0.4430317396895518
 20
3.404386833341134
 30
0.0
 42
0.4142135623730927
  0
VERTEX
  5
EE44
330
EE39
100
AcDbEntity
  8
Pel_Clad
100
AcDbVertex
100
AcDb2dVertex
 10
0.3497538052178868
 20
3.565948955071173
 30
0.0
  0
VERTEX
  5
EE45
330
EE39
100
AcDbEntity
  8
Pel_Clad
100
AcDbVertex
100
AcDb2dVertex
 10
-0.9357498653802736
 20
3.910398625475181
 30
0.0
  0
VERTEX
  5
EE46
330
EE39
100
AcDbEntity
  8
Pel_Clad
100
AcDbVertex
100
AcDb2dVertex
 10
-0.9486908202235929
 20
3.862102324501464
 30
0.0
  0
VERTEX
  5
EE47
330
EE39
100
AcDbEntity
  8
Pel_Clad
100
AcDbVertex
100
AcDb2dVertex
 10
0.3368128503745709
 20
3.517652654097457
 30
0.0
 42
-0.4142135623730982
  0
VERTEX
  5
EE48
330
EE39
100
AcDbEntity
  8
Pel_Clad
100
AcDbVertex
100
AcDb2dVertex
 10
0.3947354387158484
 20
3.417327788184446
 30
0.0
  0
VERTEX
  5
EE49
330
EE39
100
AcDbEntity
  8
Pel_Clad
100
AcDbVertex
100
AcDb2dVertex
 10
-0.1274200281008788
 20
1.468617056574498
 30
0.0
 42
0.0655434628152389
  0
VERTEX
  5
EE4A
330
EE39
100
AcDbEntity
  8
Pel_Clad
100
AcDbVertex
100
AcDb2dVertex
 10
-0.131914920000014
 20
1.434474962945309
 30
0.0
  0
VERTEX
  5
EE4B
330
EE39
100
AcDbEntity
  8
Pel_Clad
100
AcDbVertex
100
AcDb2dVertex
 10
-0.1319149200000105
 20
0.081914910000001
 30
0.0
 42
0.4142135623730951
  0
VERTEX
  5
EE4C
330
EE39
100
AcDbEntity
  8
Pel_Clad
100
AcDbVertex
100
AcDb2dVertex
 10
0.0000000000000036
 20
-0.0500000099999918
 30
0.0
  0
SEQEND
  5
EE4D
330
EE39
100
AcDbEntity
  8
Pel_Clad
  0
ENDBLK
  5
EE4E
330
EE35
100
AcDbEntity
  8
0
100
AcDbBlockEnd
  0
BLOCK
  5
EE52
330
EE4F
100
AcDbEntity
  8
0
100
AcDbBlockBegin
  2
49A1M112
 70
     0
 10
0.0
 20
0.0
 30
0.0
  3
49A1M112
  1

  0
POLYLINE
  5
EE53
330
EE4F
100
AcDbEntity
  8
Pel_Clad
100
AcDb2dPolyline
 66
     1
 10
0.0
 20
0.0
 30
0.0
 70
     1
  0
VERTEX
  5
EE54
330
EE53
100
AcDbEntity
  8
Pel_Clad
100
AcDbVertex
100
AcDb2dVertex
 10
-0.131914920000014
 20
2.877332298472537
 30
0.0
 42
0.4142135623730951
  0
VERTEX
  5
EE55
330
EE53
100
AcDbEntity
  8
Pel_Clad
100
AcDbVertex
100
AcDb2dVertex
 10
-0.2138298300000088
 20
2.959247208472532
 30
0.0
  0
VERTEX
  5
EE56
330
EE53
100
AcDbEntity
  8
Pel_Clad
100
AcDbVertex
100
AcDb2dVertex
 10
-1.130155602597453
 20
2.959247208472532
 30
0.0
 42
-0.4142135623730951
  0
VERTEX
  5
EE57
330
EE53
100
AcDbEntity
  8
Pel_Clad
100
AcDbVertex
100
AcDb2dVertex
 10
-1.262070522597467
 20
3.091162128472518
 30
0.0
  0
VERTEX
  5
EE58
330
EE53
100
AcDbEntity
  8
Pel_Clad
100
AcDbVertex
100
AcDb2dVertex
 10
-1.262070522597467
 20
5.706547461597012
 30
0.0
  0
VERTEX
  5
EE59
330
EE53
100
AcDbEntity
  8
Pel_Clad
100
AcDbVertex
100
AcDb2dVertex
 10
-1.212070512597462
 20
5.706547461597012
 30
0.0
  0
VERTEX
  5
EE5A
330
EE53
100
AcDbEntity
  8
Pel_Clad
100
AcDbVertex
100
AcDb2dVertex
 10
-1.212070512597462
 20
3.091162128472518
 30
0.0
 42
0.4142135623730951
  0
VERTEX
  5
EE5B
330
EE53
100
AcDbEntity
  8
Pel_Clad
100
AcDbVertex
100
AcDb2dVertex
 10
-1.130155602597453
 20
3.009247218472522
 30
0.0
  0
VERTEX
  5
EE5C
330
EE53
100
AcDbEntity
  8
Pel_Clad
100
AcDbVertex
100
AcDb2dVertex
 10
-0.2138298300000088
 20
3.009247218472522
 30
0.0
 42
-0.4142135623730951
  0
VERTEX
  5
EE5D
330
EE53
100
AcDbEntity
  8
Pel_Clad
100
AcDbVertex
100
AcDb2dVertex
 10
-0.0819149100000232
 20
2.877332298472537
 30
0.0
  0
VERTEX
  5
EE5E
330
EE53
100
AcDbEntity
  8
Pel_Clad
100
AcDbVertex
100
AcDb2dVertex
 10
-0.0819149099999948
 20
0.0819149099999948
 30
0.0
 42
0.4142135623730951
  0
VERTEX
  5
EE5F
330
EE53
100
AcDbEntity
  8
Pel_Clad
100
AcDbVertex
100
AcDb2dVertex
 10
0.0
 20
0.0
 30
0.0
  0
VERTEX
  5
EE60
330
EE53
100
AcDbEntity
  8
Pel_Clad
100
AcDbVertex
100
AcDb2dVertex
 10
0.2305850900000053
 20
0.0
 30
0.0
  0
VERTEX
  5
EE61
330
EE53
100
AcDbEntity
  8
Pel_Clad
100
AcDbVertex
100
AcDb2dVertex
 10
0.1165850900000045
 20
0.0799999900000081
 30
0.0
  0
VERTEX
  5
EE62
330
EE53
100
AcDbEntity
  8
Pel_Clad
100
AcDbVertex
100
AcDb2dVertex
 10
0.081417743365801
 20
0.0
 30
0.0
  0
VERTEX
  5
EE63
330
EE53
100
AcDbEntity
  8
Pel_Clad
100
AcDbVertex
100
AcDb2dVertex
 10
0.2305850900000053
 20
0.0
 30
0.0
  0
VERTEX
  5
EE64
330
EE53
100
AcDbEntity
  8
Pel_Clad
100
AcDbVertex
100
AcDb2dVertex
 10
0.2305850900000053
 20
-0.0500000099999909
 30
0.0
  0
VERTEX
  5
EE65
330
EE53
100
AcDbEntity
  8
Pel_Clad
100
AcDbVertex
100
AcDb2dVertex
 10
0.0
 20
-0.0500000099999909
 30
0.0
 42
-0.4142135623730951
  0
VERTEX
  5
EE66
330
EE53
100
AcDbEntity
  8
Pel_Clad
100
AcDbVertex
100
AcDb2dVertex
 10
-0.131914920000014
 20
0.0819149099999948
 30
0.0
  0
SEQEND
  5
EE67
330
EE53
100
AcDbEntity
  8
Pel_Clad
  0
ENDBLK
  5
EE68
330
EE4F
100
AcDbEntity
  8
0
100
AcDbBlockEnd
  0
BLOCK
  5
EE6C
330
EE69
100
AcDbEntity
  8
0
100
AcDbBlockBegin
  2
49A1M114
 70
     0
 10
0.0
 20
0.0
 30
0.0
  3
49A1M114
  1

  0
POLYLINE
  5
EE6D
330
EE69
100
AcDbEntity
  8
Pel_Clad
100
AcDb2dPolyline
 66
     1
 10
0.0
 20
0.0
 30
0.0
 70
     1
  0
VERTEX
  5
EE6E
330
EE6D
100
AcDbEntity
  8
Pel_Clad
100
AcDbVertex
100
AcDb2dVertex
 10
-1.506733131559997
 20
-0.0500000099999909
 30
0.0
 42
0.1989123673796584
  0
VERTEX
  5
EE6F
330
EE6D
100
AcDbEntity
  8
Pel_Clad
100
AcDbVertex
100
AcDb2dVertex
 10
-1.56465571990131
 20
-0.073992331658701
 30
0.0
  0
VERTEX
  5
EE70
330
EE6D
100
AcDbEntity
  8
Pel_Clad
100
AcDbVertex
100
AcDb2dVertex
 10
-3.758439045210336
 20
-2.267775656967756
 30
0.0
  0
VERTEX
  5
EE71
330
EE6D
100
AcDbEntity
  8
Pel_Clad
100
AcDbVertex
100
AcDb2dVertex
 10
-3.793794391340752
 20
-2.232420310837369
 30
0.0
  0
VERTEX
  5
EE72
330
EE6D
100
AcDbEntity
  8
Pel_Clad
100
AcDbVertex
100
AcDb2dVertex
 10
-1.600011066031696
 20
-0.0386369855283135
 30
0.0
 42
-0.1989123673796584
  0
VERTEX
  5
EE73
330
EE6D
100
AcDbEntity
  8
Pel_Clad
100
AcDbVertex
100
AcDb2dVertex
 10
-1.506733131559997
 20
0.0
 30
0.0
  0
VERTEX
  5
EE74
330
EE6D
100
AcDbEntity
  8
Pel_Clad
100
AcDbVertex
100
AcDb2dVertex
 10
0.0
 20
0.0
 30
0.0
  0
VERTEX
  5
EE75
330
EE6D
100
AcDbEntity
  8
Pel_Clad
100
AcDbVertex
100
AcDb2dVertex
 10
0.0
 20
-0.0500000099999909
 30
0.0
  0
VERTEX
  5
EE76
330
EE6D
100
AcDbEntity
  8
Pel_Clad
100
AcDbVertex
100
AcDb2dVertex
 10
-0.1491673466342043
 20
-0.0500000099999909
 30
0.0
  0
VERTEX
  5
EE77
330
EE6D
100
AcDbEntity
  8
Pel_Clad
100
AcDbVertex
100
AcDb2dVertex
 10
-0.1140000000000008
 20
-0.129999999999999
 30
0.0
  0
VERTEX
  5
EE78
330
EE6D
100
AcDbEntity
  8
Pel_Clad
100
AcDbVertex
100
AcDb2dVertex
 10
0.0
 20
-0.0500000099999909
 30
0.0
  0
SEQEND
  5
EE79
330
EE6D
100
AcDbEntity
  8
Pel_Clad
  0
ENDBLK
  5
EE7A
330
EE69
100
AcDbEntity
  8
0
100
AcDbBlockEnd
  0
BLOCK
  5
EE7E
330
EE7B
100
AcDbEntity
  8
0
100
AcDbBlockBegin
  2
49A1M115
 70
     0
 10
0.0
 20
0.0
 30
0.0
  3
49A1M115
  1

  0
POLYLINE
  5
EE7F
330
EE7B
100
AcDbEntity
  8
Pel_Clad
100
AcDb2dPolyline
 66
     1
 10
0.0
 20
0.0
 30
0.0
 70
     1
  0
VERTEX
  5
EE80
330
EE7F
100
AcDbEntity
  8
Pel_Clad
100
AcDbVertex
100
AcDb2dVertex
 10
-1.663366401402669
 20
-3.635579120768298
 30
0.0
  0
VERTEX
  5
EE81
330
EE7F
100
AcDbEntity
  8
Pel_Clad
100
AcDbVertex
100
AcDb2dVertex
 10
-1.62801105527228
 20
-3.670934466898684
 30
0.0
  0
VERTEX
  5
EE82
330
EE7F
100
AcDbEntity
  8
Pel_Clad
100
AcDbVertex
100
AcDb2dVertex
 10
-1.102466985528309
 20
-3.145390397154741
 30
0.0
 42
0.1989123673796584
  0
VERTEX
  5
EE83
330
EE7F
100
AcDbEntity
  8
Pel_Clad
100
AcDbVertex
100
AcDb2dVertex
 10
-1.063829999999994
 20
-3.052112462683055
 30
0.0
  0
VERTEX
  5
EE84
330
EE7F
100
AcDbEntity
  8
Pel_Clad
100
AcDbVertex
100
AcDb2dVertex
 10
-1.063829999999994
 20
-0.1319149199999998
 30
0.0
 42
-0.4142135623730951
  0
VERTEX
  5
EE85
330
EE7F
100
AcDbEntity
  8
Pel_Clad
100
AcDbVertex
100
AcDb2dVertex
 10
-0.9819150900000012
 20
-0.0500000100000051
 30
0.0
  0
VERTEX
  5
EE86
330
EE7F
100
AcDbEntity
  8
Pel_Clad
100
AcDbVertex
100
AcDb2dVertex
 10
0.0
 20
-0.0500000100000051
 30
0.0
  0
VERTEX
  5
EE87
330
EE7F
100
AcDbEntity
  8
Pel_Clad
100
AcDbVertex
100
AcDb2dVertex
 10
-0.1491673466342043
 20
-0.0500000100000051
 30
0.0
  0
VERTEX
  5
EE88
330
EE7F
100
AcDbEntity
  8
Pel_Clad
100
AcDbVertex
100
AcDb2dVertex
 10
-0.1140000000000008
 20
-0.1300000000000132
 30
0.0
  0
VERTEX
  5
EE89
330
EE7F
100
AcDbEntity
  8
Pel_Clad
100
AcDbVertex
100
AcDb2dVertex
 10
0.0
 20
-0.0500000100000051
 30
0.0
  0
VERTEX
  5
EE8A
330
EE7F
100
AcDbEntity
  8
Pel_Clad
100
AcDbVertex
100
AcDb2dVertex
 10
0.0
 20
0.0
 30
0.0
  0
VERTEX
  5
EE8B
330
EE7F
100
AcDbEntity
  8
Pel_Clad
100
AcDbVertex
100
AcDb2dVertex
 10
-0.9819150900000012
 20
0.0
 30
0.0
 42
0.4142135623730951
  0
VERTEX
  5
EE8C
330
EE7F
100
AcDbEntity
  8
Pel_Clad
100
AcDbVertex
100
AcDb2dVertex
 10
-1.113830009999985
 20
-0.1319149199999998
 30
0.0
  0
VERTEX
  5
EE8D
330
EE7F
100
AcDbEntity
  8
Pel_Clad
100
AcDbVertex
100
AcDb2dVertex
 10
-1.113830009999985
 20
-3.052112462683055
 30
0.0
 42
-0.198912367379658
  0
VERTEX
  5
EE8E
330
EE7F
100
AcDbEntity
  8
Pel_Clad
100
AcDbVertex
100
AcDb2dVertex
 10
-1.137822331658696
 20
-3.110035051024339
 30
0.0
  0
SEQEND
  5
EE8F
330
EE7F
100
AcDbEntity
  8
Pel_Clad
  0
ENDBLK
  5
EE90
330
EE7B
100
AcDbEntity
  8
0
100
AcDbBlockEnd
  0
ENDSEC
  0
SECTION
  2
ENTITIES
  0
INSERT
  5
E3E3
330
1F
100
AcDbEntity
  8
0
100
AcDbBlockReference
  2
49A1M129
 10
5.861019708618822
 20
1.796243384144034
 30
0.0
  0
INSERT
  5
E3E5
330
1F
100
AcDbEntity
  8
0
100
AcDbBlockReference
  2
49A1M134
 10
19.08757015554119
 20
8.769378406905111
 30
0.0
  0
INSERT
  5
E3E7
330
1F
100
AcDbEntity
  8
0
100
AcDbBlockReference
  2
49A1M133
 10
9.500437530611073
 20
8.956541760825572
 30
0.0
  0
INSERT
  5
E3E8
330
1F
100
AcDbEntity
  8
0
100
AcDbBlockReference
  2
49A1M132
 10
2.482105827225545
 20
8.107439170296494
 30
0.0
  0
INSERT
  5
E3E9
330
1F
100
AcDbEntity
  8
0
100
AcDbBlockReference
  2
49A1M131
 10
22.8629740155439
 20
13.85743917029649
 30
0.0
  0
INSERT
  5
E3EA
330
1F
100
AcDbEntity
  8
0
100
AcDbBlockReference
  2
49A1M130
 10
16.07399943140571
 20
14.0728840364592
 30
0.0
  0
INSERT
  5
E3EB
330
1F
100
AcDbEntity
  8
0
100
AcDbBlockReference
  2
49A1M128
 10
10.15658278988829
 20
12.30030922829023
 30
0.0
  0
INSERT
  5
E3EC
330
1F
100
AcDbEntity
  8
0
100
AcDbBlockReference
  2
49A1M127
 10
4.881366082263376
 20
14.5193784069051
 30
0.0
  0
INSERT
  5
E3F3
330
1F
100
AcDbEntity
  8
0
100
AcDbBlockReference
  2
49A1M107
 10
2.400190917225556
 20
30.05030922829023
 30
0.0
  0
INSERT
  5
E3F5
330
1F
100
AcDbEntity
  8
0
100
AcDbBlockReference
  2
49A1M119
 10
5.795433532568857
 20
26.61434132707486
 30
0.0
  0
INSERT
  5
E3F7
330
1F
100
AcDbEntity
  8
0
100
AcDbBlockReference
  2
49A1M125
 10
22.12492109424252
 20
20.38262403882395
 30
0.0
  0
INSERT
  5
E3F9
330
1F
100
AcDbEntity
  8
0
100
AcDbBlockReference
  2
49A1M126
 10
28.06688531312077
 20
20.76615440313779
 30
0.0
  0
INSERT
  5
E3FA
330
1F
100
AcDbEntity
  8
0
100
AcDbBlockReference
  2
49A1M124
 10
11.85695368667363
 20
19.57288403645917
 30
0.0
  0
INSERT
  5
E3FB
330
1F
100
AcDbEntity
  8
0
100
AcDbBlockReference
  2
49A1M123
 10
4.846948649169455
 20
20.20654176082557
 30
0.0
  0
INSERT
  5
E3FC
330
1F
100
AcDbEntity
  8
0
100
AcDbBlockReference
  2
49A1M122
 10
25.23002220263458
 20
25.0306274414856
 30
0.0
  0
INSERT
  5
E3FD
330
1F
100
AcDbEntity
  8
0
100
AcDbBlockReference
  2
49A1M121
 10
18.50197457084895
 20
25.7828064170787
 30
0.0
  0
INSERT
  5
E403
330
1F
100
AcDbEntity
  8
0
100
AcDbBlockReference
  2
49A1M120
 10
9.956532362865182
 20
25.8171773365753
 30
0.0
  0
INSERT
  5
E404
330
1F
100
AcDbEntity
  8
0
100
AcDbBlockReference
  2
49A1M117
 10
16.84608973370255
 20
31.58815410350565
 30
0.0
  0
INSERT
  5
E405
330
1F
100
AcDbEntity
  8
0
100
AcDbBlockReference
  2
49A1M116
 10
10.1667150583721
 20
31.6923503971153
 30
0.0
  0
INSERT
  5
E409
330
1F
100
AcDbEntity
  8
0
100
AcDbBlockReference
  2
49A1M118
 10
23.34922021740455
 20
32.50916485580904
 30
0.0
  0
INSERT
  5
E40A
330
1F
100
AcDbEntity
  8
0
100
AcDbBlockReference
  2
49A1M108
 10
5.854830819457767
 20
31.58815410350565
 30
0.0
  0
MTEXT
  5
E585
330
1F
100
AcDbEntity
  8
Pel_TXT
100
AcDbMText
 10
3.818417448304348
 20
29.36041732473571
 30
0.0
 40
0.3
 41
3.463793503808379
 71
     8
 72
     5
  1
#49A1M107
 73
     1
 44
1.0
1001
ACAD
1000
MTEXTBEGIN
1070
    73
1070
     1
1070
    44
1040
1.0
1070
    74
1070
     0
1000
MTEXTEND
  0
MTEXT
  5
E586
330
1F
100
AcDbEntity
  8
Pel_TXT
100
AcDbMText
 10
7.533803281252288
 20
29.36041732473571
 30
0.0
 40
0.3
 41
3.463793503808379
 71
     8
 72
     5
  1
#49A1M108
 73
     1
 44
1.0
1001
ACAD
1000
MTEXTBEGIN
1070
    73
1070
     1
1070
    44
1040
1.0
1070
    74
1070
     0
1000
MTEXTEND
  0
MTEXT
  5
E587
330
1F
100
AcDbEntity
  8
Pel_TXT
100
AcDbMText
 10
11.1357602674639
 20
29.36041732473571
 30
0.0
 40
0.3
 41
3.463793503808379
 71
     8
 72
     5
  1
#49A1M116
 73
     1
 44
1.0
1001
ACAD
1000
MTEXTBEGIN
1070
    73
1070
     1
1070
    44
1040
1.0
1070
    74
1070
     0
1000
MTEXTEND
  0
MTEXT
  5
E588
330
1F
100
AcDbEntity
  8
Pel_TXT
100
AcDbMText
 10
17.77826023156003
 20
29.36041732473571
 30
0.0
 40
0.3
 41
3.463793503808379
 71
     8
 72
     5
  1
#49A1M117
 73
     1
 44
1.0
1001
ACAD
1000
MTEXTBEGIN
1070
    73
1070
     1
1070
    44
1040
1.0
1070
    74
1070
     0
1000
MTEXTEND
  0
MTEXT
  5
E589
330
1F
100
AcDbEntity
  8
Pel_TXT
100
AcDbMText
 10
4.721877989399778
 20
23.17623543949162
 30
0.0
 40
0.3
 41
3.463793503808379
 71
     8
 72
     5
  1
#49A1M119
 73
     1
 44
1.0
1001
ACAD
1000
MTEXTBEGIN
1070
    73
1070
     1
1070
    44
1040
1.0
1070
    74
1070
     0
1000
MTEXTEND
  0
MTEXT
  5
E58A
330
1F
100
AcDbEntity
  8
Pel_TXT
100
AcDbMText
 10
10.45839169591969
 20
23.17623543949162
 30
0.0
 40
0.3
 41
3.463793503808379
 71
     8
 72
     5
  1
#49A1M120
 73
     1
 44
1.0
1001
ACAD
1000
MTEXTBEGIN
1070
    73
1070
     1
1070
    44
1040
1.0
1070
    74
1070
     0
1000
MTEXTEND
  0
MTEXT
  5
E58B
330
1F
100
AcDbEntity
  8
Pel_TXT
100
AcDbMText
 10
17.68696539709385
 20
23.17623543949162
 30
0.0
 40
0.3
 41
3.463793503808379
 71
     8
 72
     5
  1
#49A1M121
 73
     1
 44
1.0
1001
ACAD
1000
MTEXTBEGIN
1070
    73
1070
     1
1070
    44
1040
1.0
1070
    74
1070
     0
1000
MTEXTEND
  0
MTEXT
  5
E58C
330
1F
100
AcDbEntity
  8
Pel_TXT
100
AcDbMText
 10
13.63747042831407
 20
17.18106143441237
 30
0.0
 40
0.3
 41
3.463793503808379
 71
     8
 72
     5
  1
#49A1M124
 73
     1
 44
1.0
1001
ACAD
1000
MTEXTBEGIN
1070
    73
1070
     1
1070
    44
1040
1.0
1070
    74
1070
     0
1000
MTEXTEND
  0
MTEXT
  5
E58D
330
1F
100
AcDbEntity
  8
Pel_TXT
100
AcDbMText
 10
4.310820679481174
 20
17.18106143441237
 30
0.0
 40
0.3
 41
3.463793503808379
 71
     8
 72
     5
  1
#49A1M123
 73
     1
 44
1.0
1001
ACAD
1000
MTEXTBEGIN
1070
    73
1070
     1
1070
    44
1040
1.0
1070
    74
1070
     0
1000
MTEXTEND
  0
MTEXT
  5
E58E
330
1F
100
AcDbEntity
  8
Pel_TXT
100
AcDbMText
 10
20.70867313990046
 20
17.18106143441237
 30
0.0
 40
0.3
 41
3.463793503808379
 71
     8
 72
     5
  1
#49A1M125
 73
     1
 44
1.0
1001
ACAD
1000
MTEXTBEGIN
1070
    73
1070
     1
1070
    44
1040
1.0
1070
    74
1070
     0
1000
MTEXTEND
  0
MTEXT
  5
E58F
330
1F
100
AcDbEntity
  8
Pel_TXT
100
AcDbMText
 10
27.43415037579902
 20
17.18106143441237
 30
0.0
 40
0.3
 41
3.463793503808379
 71
     8
 72
     5
  1
#49A1M126
 73
     1
 44
1.0
1001
ACAD
1000
MTEXTBEGIN
1070
    73
1070
     1
1070
    44
1040
1.0
1070
    74
1070
     0
1000
MTEXTEND
  0
MTEXT
  5
E590
330
1F
100
AcDbEntity
  8
Pel_TXT
100
AcDbMText
 10
23.92987915186964
 20
23.17623543949162
 30
0.0
 40
0.3
 41
3.463793503808379
 71
     8
 72
     5
  1
#49A1M122
 73
     1
 44
1.0
1001
ACAD
1000
MTEXTBEGIN
1070
    73
1070
     1
1070
    44
1040
1.0
1070
    74
1070
     0
1000
MTEXTEND
  0
MTEXT
  5
E591
330
1F
100
AcDbEntity
  8
Pel_TXT
100
AcDbMText
 10
24.98391017426867
 20
29.36041732473571
 30
0.0
 40
0.3
 41
3.463793503808379
 71
     8
 72
     5
  1
#49A1M118
 73
     1
 44
1.0
1001
ACAD
1000
MTEXTBEGIN
1070
    73
1070
     1
1070
    44
1040
1.0
1070
    74
1070
     0
1000
MTEXTEND
  0
MTEXT
  5
E592
330
1F
100
AcDbEntity
  8
Pel_TXT
100
AcDbMText
 10
25.41441647344791
 20
11.62838060973425
 30
0.0
 40
0.3
 41
3.463793503808379
 71
     8
 72
     5
  1
#49A1M131
 73
     1
 44
1.0
1001
ACAD
1000
MTEXTBEGIN
1070
    73
1070
     1
1070
    44
1040
1.0
1070
    74
1070
     0
1000
MTEXTEND
  0
MTEXT
  5
E593
330
1F
100
AcDbEntity
  8
Pel_TXT
100
AcDbMText
 10
18.5401102926522
 20
11.62838060973425
 30
0.0
 40
0.3
 41
3.463793503808379
 71
     8
 72
     5
  1
#49A1M130
 73
     1
 44
1.0
1001
ACAD
1000
MTEXTBEGIN
1070
    73
1070
     1
1070
    44
1040
1.0
1070
    74
1070
     0
1000
MTEXTEND
  0
MTEXT
  5
E594
330
1F
100
AcDbEntity
  8
Pel_TXT
100
AcDbMText
 10
11.35983893835607
 20
11.62838060973425
 30
0.0
 40
0.3
 41
3.463793503808379
 71
     8
 72
     5
  1
#49A1M128
 73
     1
 44
1.0
1001
ACAD
1000
MTEXTBEGIN
1070
    73
1070
     1
1070
    44
1040
1.0
1070
    74
1070
     0
1000
MTEXTEND
  0
MTEXT
  5
E595
330
1F
100
AcDbEntity
  8
Pel_TXT
100
AcDbMText
 10
4.661212862904426
 20
11.62838060973425
 30
0.0
 40
0.3
 41
3.463793503808379
 71
     8
 72
     5
  1
#49A1M127
 73
     1
 44
1.0
1001
ACAD
1000
MTEXTBEGIN
1070
    73
1070
     1
1070
    44
1040
1.0
1070
    74
1070
     0
1000
MTEXTEND
  0
MTEXT
  5
E596
330
1F
100
AcDbEntity
  8
Pel_TXT
100
AcDbMText
 10
4.020024863244849
 20
5.846442705479389
 30
0.0
 40
0.3
 41
3.463793503808379
 71
     8
 72
     5
  1
#49A1M132
 73
     1
 44
1.0
1001
ACAD
1000
MTEXTBEGIN
1070
    73
1070
     1
1070
    44
1040
1.0
1070
    74
1070
     0
1000
MTEXTEND
  0
MTEXT
  5
E597
330
1F
100
AcDbEntity
  8
Pel_TXT
100
AcDbMText
 10
10.91659574619352
 20
5.846442705479389
 30
0.0
 40
0.3
 41
3.463793503808379
 71
     8
 72
     5
  1
#49A1M133
 73
     1
 44
1.0
1001
ACAD
1000
MTEXTBEGIN
1070
    73
1070
     1
1070
    44
1040
1.0
1070
    74
1070
     0
1000
MTEXTEND
  0
MTEXT
  5
E598
330
1F
100
AcDbEntity
  8
Pel_TXT
100
AcDbMText
 10
19.49455645344813
 20
5.846442705479389
 30
0.0
 40
0.3
 41
3.463793503808379
 71
     8
 72
     5
  1
#49A1M134
 73
     1
 44
1.0
1001
ACAD
1000
MTEXTBEGIN
1070
    73
1070
     1
1070
    44
1040
1.0
1070
    74
1070
     0
1000
MTEXTEND
  0
MTEXT
  5
E599
330
1F
100
AcDbEntity
  8
Pel_TXT
100
AcDbMText
 10
5.870223608507192
 20
0.6997618390734531
 30
0.0
 40
0.3
 41
3.463793503808379
 71
     8
 72
     5
  1
#49A1M129
 73
     1
 44
1.0
1001
ACAD
1000
MTEXTBEGIN
1070
    73
1070
     1
1070
    44
1040
1.0
1070
    74
1070
     0
1000
MTEXTEND
  0
MTEXT
  5
E59D
330
1F
100
AcDbEntity
  8
Pel_TXT
100
AcDbMText
 10
4.400684672140038
 20
4.066806833498147
 30
0.0
 40
0.4
 41
4.796937036408417
 71
     8
 72
     5
  1
Attatchment Clip
 73
     1
 44
1.0
1001
ACAD
1000
MTEXTBEGIN
1070
    73
1070
     1
1070
    44
1040
1.0
1070
    74
1070
     0
1000
MTEXTEND
  0
MTEXT
  5
E59E
330
1F
100
AcDbEntity
  8
Pel_TXT
100
AcDbMText
 10
3.684487241715368
 20
33.61605505121568
 30
0.0
 40
0.3
 41
3.463793503808379
 71
     8
 72
     5
  1
{\H1.333x;Sill Flashings}
 73
     1
 44
1.0
1001
ACAD
1000
MTEXTBEGIN
1070
    73
1070
     1
1070
    44
1040
1.0
1070
    74
1070
     0
1000
MTEXTEND
  0
MTEXT
  5
EEB5
330
1F
100
AcDbEntity
  8
Pel_TXT
100
AcDbMText
 10
38.06722057420492
 20
3.44550795577792
 30
0.0
 40
0.3
 41
3.463793503808379
 71
     8
 72
     5
  1
#49A1M105
 73
     1
 44
1.0
1001
ACAD
1000
MTEXTBEGIN
1070
    73
1070
     1
1070
    44
1040
1.0
1070
    74
1070
     0
1000
MTEXTEND
  0
MTEXT
  5
EEB6
330
1F
100
AcDbEntity
  8
Pel_TXT
100
AcDbMText
 10
43.78616629055946
 20
3.44550795577792
 30
0.0
 40
0.3
 41
3.463793503808379
 71
     8
 72
     5
  1
#49A1M106
 73
     1
 44
1.0
1001
ACAD
1000
MTEXTBEGIN
1070
    73
1070
     1
1070
    44
1040
1.0
1070
    74
1070
     0
1000
MTEXTEND
  0
MTEXT
  5
EEB7
330
1F
100
AcDbEntity
  8
Pel_TXT
100
AcDbMText
 10
47.89966880627886
 20
3.44550795577792
 30
0.0
 40
0.3
 41
3.463793503808379
 71
     8
 72
     5
  1
#49A1M108
 73
     1
 44
1.0
1001
ACAD
1000
MTEXTBEGIN
1070
    73
1070
     1
1070
    44
1040
1.0
1070
    74
1070
     0
1000
MTEXTEND
  0
MTEXT
  5
EEB8
330
1F
100
AcDbEntity
  8
Pel_TXT
100
AcDbMText
 10
52.02709790838614
 20
3.44550795577792
 30
0.0
 40
0.3
 41
3.463793503808379
 71
     8
 72
     5
  1
#49A1M110
 73
     1
 44
1.0
1001
ACAD
1000
MTEXTBEGIN
1070
    73
1070
     1
1070
    44
1040
1.0
1070
    74
1070
     0
1000
MTEXTEND
  0
MTEXT
  5
EEB9
330
1F
100
AcDbEntity
  8
Pel_TXT
100
AcDbMText
 10
56.08278662025838
 20
3.44550795577792
 30
0.0
 40
0.3
 41
3.463793503808379
 71
     8
 72
     5
  1
#49A1M111
 73
     1
 44
1.0
1001
ACAD
1000
MTEXTBEGIN
1070
    73
1070
     1
1070
    44
1040
1.0
1070
    74
1070
     0
1000
MTEXTEND
  0
MTEXT
  5
EEBA
330
1F
100
AcDbEntity
  8
Pel_TXT
100
AcDbMText
 10
60.43445736862015
 20
3.44550795577792
 30
0.0
 40
0.3
 41
3.463793503808379
 71
     8
 72
     5
  1
#49A1M112
 73
     1
 44
1.0
1001
ACAD
1000
MTEXTBEGIN
1070
    73
1070
     1
1070
    44
1040
1.0
1070
    74
1070
     0
1000
MTEXTEND
  0
MTEXT
  5
EEBB
330
1F
100
AcDbEntity
  8
Pel_TXT
100
AcDbMText
 10
55.74529444593628
 20
14.21512202141186
 30
0.0
 40
0.3
 41
3.463793503808379
 71
     8
 72
     5
  1
#49A1M115
 73
     1
 44
1.0
1001
ACAD
1000
MTEXTBEGIN
1070
    73
1070
     1
1070
    44
1040
1.0
1070
    74
1070
     0
1000
MTEXTEND
  0
MTEXT
  5
EEBC
330
1F
100
AcDbEntity
  8
Pel_TXT
100
AcDbMText
 10
50.84578207237272
 20
14.21512202141186
 30
0.0
 40
0.3
 41
3.463793503808379
 71
     8
 72
     5
  1
#49A1M114
 73
     1
 44
1.0
1001
ACAD
1000
MTEXTBEGIN
1070
    73
1070
     1
1070
    44
1040
1.0
1070
    74
1070
     0
1000
MTEXTEND
  0
MTEXT
  5
EEBD
330
1F
100
AcDbEntity
  8
Pel_TXT
100
AcDbMText
 10
43.23451236939896
 20
14.21512202141186
 30
0.0
 40
0.3
 41
3.463793503808379
 71
     8
 72
     5
  1
#49A1M102
 73
     1
 44
1.0
1001
ACAD
1000
MTEXTBEGIN
1070
    73
1070
     1
1070
    44
1040
1.0
1070
    74
1070
     0
1000
MTEXTEND
  0
MTEXT
  5
EEBE
330
1F
100
AcDbEntity
  8
Pel_TXT
100
AcDbMText
 10
36.99774873563848
 20
14.21512202141186
 30
0.0
 40
0.3
 41
3.463793503808379
 71
     8
 72
     5
  1
#49A1M101
 73
     1
 44
1.0
1001
ACAD
1000
MTEXTBEGIN
1070
    73
1070
     1
1070
    44
1040
1.0
1070
    74
1070
     0
1000
MTEXTEND
  0
MTEXT
  5
EEBF
330
1F
100
AcDbEntity
  8
Pel_TXT
100
AcDbMText
 10
50.49887188993825
 20
24.8149152992164
 30
0.0
 40
0.3
 41
3.463793503808379
 71
     8
 72
     5
  1
#49A1M104
 73
     1
 44
1.0
1001
ACAD
1000
MTEXTBEGIN
1070
    73
1070
     1
1070
    44
1040
1.0
1070
    74
1070
     0
1000
MTEXTEND
  0
MTEXT
  5
EEC0
330
1F
100
AcDbEntity
  8
Pel_TXT
100
AcDbMText
 10
43.05984076206618
 20
24.8149152992164
 30
0.0
 40
0.3
 41
3.463793503808379
 71
     8
 72
     5
  1
#49A1M103
 73
     1
 44
1.0
1001
ACAD
1000
MTEXTBEGIN
1070
    73
1070
     1
1070
    44
1040
1.0
1070
    74
1070
     0
1000
MTEXTEND
  0
MTEXT
  5
EEC1
330
1F
100
AcDbEntity
  8
Pel_TXT
100
AcDbMText
 10
36.82307712830568
 20
24.8149152992164
 30
0.0
 40
0.3
 41
3.463793503808379
 71
     8
 72
     5
  1
#49A1M100
 73
     1
 44
1.0
1001
ACAD
1000
MTEXTBEGIN
1070
    73
1070
     1
1070
    44
1040
1.0
1070
    74
1070
     0
1000
MTEXTEND
  0
MTEXT
  5
EEC2
330
1F
100
AcDbEntity
  8
Pel_TXT
100
AcDbMText
 10
51.22337119304015
 20
21.92509596869904
 30
0.0
 40
0.4
 41
3.463793503808379
 71
     8
 72
     5
  1
Sill Trim
 73
     1
 44
1.0
1001
ACAD
1000
MTEXTBEGIN
1070
    73
1070
     1
1070
    44
1040
1.0
1070
    74
1070
     0
1000
MTEXTEND
  0
MTEXT
  5
EEC3
330
1F
100
AcDbEntity
  8
Pel_TXT
100
AcDbMText
 10
38.27278970545342
 20
10.88268839815115
 30
0.0
 40
0.4
 41
4.442298832743293
 71
     8
 72
     5
  1
{\H0.9997x;Head Jamb Trim}
 73
     1
 44
1.0
1001
ACAD
1000
MTEXTBEGIN
1070
    73
1070
     1
1070
    44
1040
1.0
1070
    74
1070
     0
1000
MTEXTEND
  0
MTEXT
  5
EEC4
330
1F
100
AcDbEntity
  8
Pel_TXT
100
AcDbMText
 10
37.94353765278535
 20
21.92509596869904
 30
0.0
 40
0.4
 41
3.463793503808379
 71
     8
 72
     5
  1
{\H0.9997x;Mullion Trim}
 73
     1
 44
1.0
1001
ACAD
1000
MTEXTBEGIN
1070
    73
1070
     1
1070
    44
1040
1.0
1070
    74
1070
     0
1000
MTEXTEND
  0
MTEXT
  5
EEC5
330
1F
100
AcDbEntity
  8
Pel_TXT
100
AcDbMText
 10
38.27278970545342
 20
32.01407532924604
 30
0.0
 40
0.4
 41
5.561439256135289
 71
     8
 72
     5
  1
{\H0.9997x;Mullion Covers}
 73
     1
 44
1.0
1001
ACAD
1000
MTEXTBEGIN
1070
    73
1070
     1
1070
    44
1040
1.0
1070
    74
1070
     0
1000
MTEXTEND
  0
LINE
  5
EEC6
330
1F
100
AcDbEntity
  8
Pel_TXT
100
AcDbLine
 10
36.82307712830568
 20
24.8149152992164
 30
0.0
 11
36.82307712830568
 21
24.8149152992164
 31
0.0
  0
INSERT
  5
EEC7
330
1F
100
AcDbEntity
  8
0
100
AcDbBlockReference
  2
49A1M100
 10
37.63808630206078
 20
26.66930730121037
 30
0.0
  0
INSERT
  5
EEC8
330
1F
100
AcDbEntity
  8
0
100
AcDbBlockReference
  2
49A1M103
 10
41.09460597223139
 20
26.66930730121037
 30
0.0
  0
INSERT
  5
EEC9
330
1F
100
AcDbEntity
  8
0
100
AcDbBlockReference
  2
49A1M104
 10
50.33703849939737
 20
26.66930730121037
 30
0.0
  0
INSERT
  5
EECA
330
1F
100
AcDbEntity
  8
0
100
AcDbBlockReference
  2
49A1M101
 10
37.81275790939357
 20
16.06951402340583
 30
0.0
  0
INSERT
  5
EECB
330
1F
100
AcDbEntity
  8
Pel_TXT
100
AcDbBlockReference
  2
49A1M102
 10
43.47340012780457
 20
16.06951402340583
 30
0.0
  0
INSERT
  5
EECC
330
1F
100
AcDbEntity
  8
0
100
AcDbBlockReference
  2
49A1M105
 10
38.94518672165555
 20
7.646974957771909
 30
0.0
  0
INSERT
  5
EECD
330
1F
100
AcDbEntity
  8
0
100
AcDbBlockReference
  2
49A1M106
 10
44.24908126912513
 20
8.092453707771916
 30
0.0
  0
INSERT
  5
EECE
330
1F
100
AcDbEntity
  8
0
100
AcDbBlockReference
  2
49A1M109
 10
48.75776694635993
 20
5.299899957771891
 30
0.0
  0
INSERT
  5
EECF
330
1F
100
AcDbEntity
  8
0
100
AcDbBlockReference
  2
49A1M110
 10
51.89185961871519
 20
5.299899957771891
 30
0.0
  0
INSERT
  5
EED0
330
1F
100
AcDbEntity
  8
0
100
AcDbBlockReference
  2
49A1M111
 10
55.37912245986873
 20
5.299899957771891
 30
0.0
  0
INSERT
  5
EED1
330
1F
100
AcDbEntity
  8
0
100
AcDbBlockReference
  2
49A1M112
 10
59.35343686311448
 20
5.299899957771891
 30
0.0
  0
INSERT
  5
EED2
330
1F
100
AcDbEntity
  8
0
100
AcDbBlockReference
  2
49A1M114
 10
52.95912764755748
 20
19.79929611053322
 30
0.0
  0
INSERT
  5
EED3
330
1F
100
AcDbEntity
  8
0
100
AcDbBlockReference
  2
49A1M115
 10
56.82779754869454
 20
19.79929611053322
 30
0.0
  0
VIEWPORT
  5
CBD9
102
{ACAD_XDICTIONARY
360
EF0C
102
}
330
CBD2
100
AcDbEntity
 67
     1
  8
0
100
AcDbViewport
 10
3.968749891115924
 20
5.218749628292291
 30
0.0
 40
17.62601621246861
 41
11.63799974576694
 68
     1
 69
     1
 12
3.968749891115924
 22
5.218749628292291
 13
0.0
 23
0.0
 14
0.5
 24
0.5
 15
0.5
 25
0.5
 16
0.0
 26
0.0
 36
1.0
 17
0.0
 27
0.0
 37
0.0
 42
50.0
 43
0.0
 44
0.0
 45
11.63799974576694
 50
0.0
 51
0.0
 72
  5000
 90
    32800
  1

281
     0
 71
     1
 74
     0
110
0.0
120
0.0
130
0.0
111
1.0
121
0.0
131
0.0
112
0.0
122
1.0
132
0.0
 79
     0
146
0.0
  0
VIEWPORT
  5
D915
102
{ACAD_XDICTIONARY
360
EF0E
102
}
330
CBD2
100
AcDbEntity
 67
     1
  8
Pel_Defpoints
100
AcDbViewport
 10
3.968749882715535
 20
5.218749625349883
 30
0.0
 40
7.928490862866246
 41
10.43240584937289
 68
     2
 69
     2
 12
3.6875
 22
4.3125
 13
0.0
 23
0.0
 14
0.125
 24
0.125
 15
0.5
 25
0.5
 16
0.0
 26
0.0
 36
1.0
 17
0.0
 27
0.0
 37
0.0
 42
50.0
 43
0.0
 44
0.0
 45
9.704115760475342
 50
0.0
 51
0.0
 72
  5000
 90
    32768
  1

281
     0
 71
     1
 74
     0
110
0.0
120
0.0
130
0.0
111
1.0
121
0.0
131
0.0
112
0.0
122
1.0
132
0.0
 79
     0
146
0.0
  0
ENDSEC
  0
SECTION
  2
OBJECTS
  0
DICTIONARY
  5
C
330
0
100
AcDbDictionary
281
     1
  3
ACAD_COLOR
350
A6AD
  3
ACAD_GROUP
350
D
  3
ACAD_LAYOUT
350
1A
  3
ACAD_MATERIAL
350
A6AC
  3
ACAD_MLINESTYLE
350
17
  3
ACAD_PLOTSETTINGS
350
19
  3
ACAD_PLOTSTYLENAME
350
E
  3
AcadDim
350
15D
  3
ACDBHEADERROUNDTRIPXREC
350
EEF9
  3
AcDbVariableDictionary
350
79D9
  3
ADE_QUERY_LIBRARY
350
1012
  3
AMAcad
350
1B9
  3
ASE_INDEX_DICTIONARY
350
E0A6
  3
AVAT_FILE_STORE
350
FD6
  3
DWGPROPS
350
EEF8
1001
ADE
1000
ADE02C004
1000
[Query]
1000
CaseSensitiveMatch=0
1000
SaveCurrQueryInSession=1
1000
MkSelSetWithQryObj=0
1000
ShowBlockAsInsPt=0
1000
CreateAssociativeHatchObjects=0
1000
ReferenceBoundaryForAreaLocation=1
1000
ShowImageAsBoundary=1
1000
DefaultJoinOperator=2
1000
ColorForAdd=red
1000
ColorForRemove=red
1000
BlockLocnForQuery=1
1000
TextLocnForQuery=1
1000
[Save Back]
1000
RedefineBlockDefinitions=1
1000
RedefineLayerDefinitions=1
1000
RedefineTextStyleDefinitions=1
1000
RemoveUnusedGroups=1
1000
EraseSavedBackObjects=1
1000
RemoveLockAfterSave=1
1000
CreateHistoryFileOfChanges=0
1000
CreateBackupFileOfSourceDwg=1
1000
DontAddObjectsToSaveSet=0
1000
MarkObjectsForEditingWithoutPrompting=0
1000
[Coordinate Transformation]
1000
RestoreLastActiveDwgsOnStartup=1
1000
ActivateDwgsOnAttach=1
1000
AdjustSizesAndScalesForChangesInUnits=1
1000
AdjustRotationsForMapDistortions=1
1000
AdjustSizesAndScalesForMapDistortions=1
1000
AdjustElevations=1
1000
AdjustZeroRotationObjects=1
1000
ReconnectDbOnWSOpen=1
1000
NoOfSQLConditionsInHistory=10
  0
DICTIONARY
  5
E64E
330
2
100
AcDbDictionary
280
     1
281
     1
  3
ACAD_LAYERFILTERS
360
ED2F
  3
ACAD_LAYERSTATES
360
E64F
  0
DICTIONARY
  5
D9A1
330
1F
100
AcDbDictionary
280
     1
281
     1
  0
DICTIONARY
  5
EA09
330
E1EB
100
AcDbDictionary
280
     1
281
     1
  3
ACAD_SORTENTS
360
EA0A
  0
DICTIONARY
  5
EA71
330
E1FC
100
AcDbDictionary
280
     1
281
     1
  3
ACAD_SORTENTS
360
EA72
  0
DICTIONARY
  5
EA31
330
E20D
100
AcDbDictionary
280
     1
281
     1
  3
ACAD_SORTENTS
360
EA32
  0
DICTIONARY
  5
EA51
330
E222
100
AcDbDictionary
280
     1
281
     1
  3
ACAD_SORTENTS
360
EA52
  0
DICTIONARY
  5
EACF
330
E233
100
AcDbDictionary
280
     1
281
     1
  3
ACAD_SORTENTS
360
EAD0
  0
DICTIONARY
  5
EAF7
330
E24C
100
AcDbDictionary
280
     1
281
     1
  3
ACAD_SORTENTS
360
EAF8
  0
DICTIONARY
  5
EB0F
330
E261
100
AcDbDictionary
280
     1
281
     1
  3
ACAD_SORTENTS
360
EB10
  0
DICTIONARY
  5
EB47
330
E26E
100
AcDbDictionary
280
     1
281
     1
  3
ACAD_SORTENTS
360
EB48
  0
DICTIONARY
  5
EB77
330
E28B
100
AcDbDictionary
280
     1
281
     1
  3
ACAD_SORTENTS
360
EB78
  0
DICTIONARY
  5
EBE7
330
E2A4
100
AcDbDictionary
280
     1
281
     1
  3
ACAD_SORTENTS
360
EBE8
  0
DICTIONARY
  5
EBB7
330
E2BD
100
AcDbDictionary
280
     1
281
     1
  3
ACAD_SORTENTS
360
EBB8
  0
DICTIONARY
  5
EA9F
330
E2DE
100
AcDbDictionary
280
     1
281
     1
  3
ACAD_SORTENTS
360
EAA0
  0
DICTIONARY
  5
E9E9
330
E2F6
100
AcDbDictionary
280
     1
281
     1
  3
ACAD_SORTENTS
360
E9EA
  0
DICTIONARY
  5
EC17
330
E303
100
AcDbDictionary
280
     1
281
     1
  3
ACAD_SORTENTS
360
EC18
  0
DICTIONARY
  5
EC2F
330
E31C
100
AcDbDictionary
280
     1
281
     1
  3
ACAD_SORTENTS
360
EC30
  0
DICTIONARY
  5
EC57
330
E329
100
AcDbDictionary
280
     1
281
     1
  3
ACAD_SORTENTS
360
EC58
  0
DICTIONARY
  5
EC87
330
E33E
100
AcDbDictionary
280
     1
281
     1
  3
ACAD_SORTENTS
360
EC88
  0
DICTIONARY
  5
E5E9
330
E357
100
AcDbDictionary
280
     1
281
     1
  3
ACAD_SORTENTS
360
ED17
  0
DICTIONARY
  5
ECEF
330
E36C
100
AcDbDictionary
280
     1
281
     1
  3
ACAD_SORTENTS
360
ECF0
  0
DICTIONARY
  5
ECBF
330
E385
100
AcDbDictionary
280
     1
281
     1
  3
ACAD_SORTENTS
360
ECC0
  0
DICTIONARY
  5
E5C1
330
E3A2
100
AcDbDictionary
280
     1
281
     1
  3
ACAD_SORTENTS
360
ED2E
  0
DICTIONARY
  5
ED5D
330
ED5C
100
AcDbDictionary
280
     1
281
     1
  3
ACAD_SORTENTS
360
ED5E
  0
DICTIONARY
  5
ED76
330
ED75
100
AcDbDictionary
280
     1
281
     1
  3
ACAD_SORTENTS
360
ED77
  0
DICTIONARY
  5
ED93
330
ED92
100
AcDbDictionary
280
     1
281
     1
  3
ACAD_SORTENTS
360
ED94
  0
DICTIONARY
  5
EDB0
330
EDAF
100
AcDbDictionary
280
     1
281
     1
  3
ACAD_SORTENTS
360
EDB1
  0
DICTIONARY
  5
EDC3
330
EDC2
100
AcDbDictionary
280
     1
281
     1
  3
ACAD_SORTENTS
360
EDC4
  0
DICTIONARY
  5
EDDE
330
EDDD
100
AcDbDictionary
280
     1
281
     1
  3
ACAD_SORTENTS
360
EDDF
  0
DICTIONARY
  5
EDF8
330
EDF7
100
AcDbDictionary
280
     1
281
     1
  3
ACAD_SORTENTS
360
EDF9
  0
DICTIONARY
  5
EE0A
330
EE09
100
AcDbDictionary
280
     1
281
     1
  3
ACAD_SORTENTS
360
EE0B
  0
DICTIONARY
  5
EE20
330
EE1F
100
AcDbDictionary
280
     1
281
     1
  3
ACAD_SORTENTS
360
EE21
  0
DICTIONARY
  5
EE36
330
EE35
100
AcDbDictionary
280
     1
281
     1
  3
ACAD_SORTENTS
360
EE37
  0
DICTIONARY
  5
EE50
330
EE4F
100
AcDbDictionary
280
     1
281
     1
  3
ACAD_SORTENTS
360
EE51
  0
DICTIONARY
  5
EE6A
330
EE69
100
AcDbDictionary
280
     1
281
     1
  3
ACAD_SORTENTS
360
EE6B
  0
DICTIONARY
  5
EE7C
330
EE7B
100
AcDbDictionary
280
     1
281
     1
  3
ACAD_SORTENTS
360
EE7D
  0
DICTIONARY
  5
EF0C
330
CBD9
100
AcDbDictionary
280
     1
281
     1
  3
ACAD_XREC_ROUNDTRIP
360
EF0D
  0
DICTIONARY
  5
EF0E
330
D915
100
AcDbDictionary
280
     1
281
     1
  3
ACAD_XREC_ROUNDTRIP
360
EF0F
  0
DICTIONARY
  5
A6AD
102
{ACAD_REACTORS
330
C
102
}
330
C
100
AcDbDictionary
281
     1
  0
DICTIONARY
  5
D
102
{ACAD_REACTORS
330
C
102
}
330
C
100
AcDbDictionary
281
     1
  0
DICTIONARY
  5
1A
102
{ACAD_REACTORS
330
C
102
}
330
C
100
AcDbDictionary
281
     1
  3
Layout1
350
CBD3
  3
Model
350
22
  0
DICTIONARY
  5
A6AC
102
{ACAD_REACTORS
330
C
102
}
330
C
100
AcDbDictionary
281
     1
  0
DICTIONARY
  5
17
102
{ACAD_REACTORS
330
C
102
}
330
C
100
AcDbDictionary
281
     1
  3
Standard
350
18
  0
DICTIONARY
  5
19
102
{ACAD_REACTORS
330
C
102
}
330
C
100
AcDbDictionary
281
     1
  3
22x17 Xerox8830
350
CBD1
  3
22x34 Xerox8830
350
CBD0
  3
8.5x11(row 1)
350
B30E
  3
8.5x11(row 2)
350
BF67
  3
8.5x11(row 3)
350
BF68
  3
8.5x11(row 4)
350
BF69
  0
ACDBDICTIONARYWDFLT
  5
E
102
{ACAD_REACTORS
330
C
102
}
330
C
100
AcDbDictionary
281
     1
  3
Normal
350
F
100
AcDbDictionaryWithDefault
340
F
  0
XRECORD
  5
15D
102
{ACAD_REACTORS
330
C
102
}
330
C
100
AcDbXrecord
280
     1
 90
   990106
  3

 60
     0
 61
     0
 62
     1
 63
     3
 64
     0
 65
     0
 66
     0
 67
     3
 68
     0
 69
     0
 70
     0
 71
     0
 72
     0
 40
0.0
170
     2
340
0
  0
DICTIONARY
  5
EEF9
102
{ACAD_REACTORS
330
C
102
}
330
C
100
AcDbDictionary
281
     1
  3
COLORDICT
350
EEFB
  3
MATERIALDICT
350
EEFA
  0
DICTIONARY
  5
79D9
102
{ACAD_REACTORS
330
C
102
}
330
C
100
AcDbDictionary
281
     1
  3
DIMASSOC
350
79DA
  3
PROJECTNAME
350
ED58
  0
DICTIONARY
  5
1012
102
{ACAD_REACTORS
330
C
102
}
330
C
100
AcDbDictionary
281
     1
  3
_CurrQry
350
1047
  0
DICTIONARY
  5
1B9
102
{ACAD_REACTORS
330
C
102
}
330
C
100
AcDbDictionary
281
     1
  3
AM_LOADER
350
1BA
  0
DICTIONARY
  5
E0A6
102
{ACAD_REACTORS
330
C
102
}
330
C
100
AcDbDictionary
281
     1
  3
ASEBlockHierarchyIndexRecord
350
E0A7
1001
DCO15
1040
1527930735.345
  0
DICTIONARY
  5
FD6
102
{ACAD_REACTORS
330
C
102
}
330
C
100
AcDbDictionary
281
     1
  0
XRECORD
  5
EEF8
102
{ACAD_REACTORS
330
C
102
}
330
C
100
AcDbXrecord
280
     1
  1
DWGPROPS COOKIE
  2

  3

  4

  6

  7

  8

  9

300
=
301
=
302
=
303
=
304
=
305
=
306
=
307
=
308
=
309
=
 40
0.2841022569444445
 41
2453612.528462824
 42
2454075.331860428
  1

 90
        0
  0
DICTIONARY
  5
ED2F
102
{ACAD_REACTORS
330
E64E
102
}
330
E64E
100
AcDbDictionary
281
     1
  0
DICTIONARY
  5
E64F
102
{ACAD_REACTORS
330
E64E
102
}
330
E64E
100
AcDbDictionary
281
     1
  0
SORTENTSTABLE
  5
EA0A
102
{ACAD_REACTORS
330
EA09
102
}
330
EA09
100
AcDbSortentsTable
330
E1EB
  0
SORTENTSTABLE
  5
EA72
102
{ACAD_REACTORS
330
EA71
102
}
330
EA71
100
AcDbSortentsTable
330
E1FC
  0
SORTENTSTABLE
  5
EA32
102
{ACAD_REACTORS
330
EA31
102
}
330
EA31
100
AcDbSortentsTable
330
E20D
  0
SORTENTSTABLE
  5
EA52
102
{ACAD_REACTORS
330
EA51
102
}
330
EA51
100
AcDbSortentsTable
330
E222
  0
SORTENTSTABLE
  5
EAD0
102
{ACAD_REACTORS
330
EACF
102
}
330
EACF
100
AcDbSortentsTable
330
E233
  0
SORTENTSTABLE
  5
EAF8
102
{ACAD_REACTORS
330
EAF7
102
}
330
EAF7
100
AcDbSortentsTable
330
E24C
  0
SORTENTSTABLE
  5
EB10
102
{ACAD_REACTORS
330
EB0F
102
}
330
EB0F
100
AcDbSortentsTable
330
E261
  0
SORTENTSTABLE
  5
EB48
102
{ACAD_REACTORS
330
EB47
102
}
330
EB47
100
AcDbSortentsTable
330
E26E
  0
SORTENTSTABLE
  5
EB78
102
{ACAD_REACTORS
330
EB77
102
}
330
EB77
100
AcDbSortentsTable
330
E28B
  0
SORTENTSTABLE
  5
EBE8
102
{ACAD_REACTORS
330
EBE7
102
}
330
EBE7
100
AcDbSortentsTable
330
E2A4
  0
SORTENTSTABLE
  5
EBB8
102
{ACAD_REACTORS
330
EBB7
102
}
330
EBB7
100
AcDbSortentsTable
330
E2BD
  0
SORTENTSTABLE
  5
EAA0
102
{ACAD_REACTORS
330
EA9F
102
}
330
EA9F
100
AcDbSortentsTable
330
E2DE
  0
SORTENTSTABLE
  5
E9EA
102
{ACAD_REACTORS
330
E9E9
102
}
330
E9E9
100
AcDbSortentsTable
330
E2F6
  0
SORTENTSTABLE
  5
EC18
102
{ACAD_REACTORS
330
EC17
102
}
330
EC17
100
AcDbSortentsTable
330
E303
  0
SORTENTSTABLE
  5
EC30
102
{ACAD_REACTORS
330
EC2F
102
}
330
EC2F
100
AcDbSortentsTable
330
E31C
  0
SORTENTSTABLE
  5
EC58
102
{ACAD_REACTORS
330
EC57
102
}
330
EC57
100
AcDbSortentsTable
330
E329
  0
SORTENTSTABLE
  5
EC88
102
{ACAD_REACTORS
330
EC87
102
}
330
EC87
100
AcDbSortentsTable
330
E33E
  0
SORTENTSTABLE
  5
ED17
102
{ACAD_REACTORS
330
E5E9
102
}
330
E5E9
100
AcDbSortentsTable
330
E357
  0
SORTENTSTABLE
  5
ECF0
102
{ACAD_REACTORS
330
ECEF
102
}
330
ECEF
100
AcDbSortentsTable
330
E36C
  0
SORTENTSTABLE
  5
ECC0
102
{ACAD_REACTORS
330
ECBF
102
}
330
ECBF
100
AcDbSortentsTable
330
E385
  0
SORTENTSTABLE
  5
ED2E
102
{ACAD_REACTORS
330
E5C1
102
}
330
E5C1
100
AcDbSortentsTable
330
E3A2
  0
SORTENTSTABLE
  5
ED5E
102
{ACAD_REACTORS
330
ED5D
102
}
330
ED5D
100
AcDbSortentsTable
330
ED5C
  0
SORTENTSTABLE
  5
ED77
102
{ACAD_REACTORS
330
ED76
102
}
330
ED76
100
AcDbSortentsTable
330
ED75
  0
SORTENTSTABLE
  5
ED94
102
{ACAD_REACTORS
330
ED93
102
}
330
ED93
100
AcDbSortentsTable
330
ED92
  0
SORTENTSTABLE
  5
EDB1
102
{ACAD_REACTORS
330
EDB0
102
}
330
EDB0
100
AcDbSortentsTable
330
EDAF
  0
SORTENTSTABLE
  5
EDC4
102
{ACAD_REACTORS
330
EDC3
102
}
330
EDC3
100
AcDbSortentsTable
330
EDC2
  0
SORTENTSTABLE
  5
EDDF
102
{ACAD_REACTORS
330
EDDE
102
}
330
EDDE
100
AcDbSortentsTable
330
EDDD
  0
SORTENTSTABLE
  5
EDF9
102
{ACAD_REACTORS
330
EDF8
102
}
330
EDF8
100
AcDbSortentsTable
330
EDF7
  0
SORTENTSTABLE
  5
EE0B
102
{ACAD_REACTORS
330
EE0A
102
}
330
EE0A
100
AcDbSortentsTable
330
EE09
  0
SORTENTSTABLE
  5
EE21
102
{ACAD_REACTORS
330
EE20
102
}
330
EE20
100
AcDbSortentsTable
330
EE1F
  0
SORTENTSTABLE
  5
EE37
102
{ACAD_REACTORS
330
EE36
102
}
330
EE36
100
AcDbSortentsTable
330
EE35
  0
SORTENTSTABLE
  5
EE51
102
{ACAD_REACTORS
330
EE50
102
}
330
EE50
100
AcDbSortentsTable
330
EE4F
  0
SORTENTSTABLE
  5
EE6B
102
{ACAD_REACTORS
330
EE6A
102
}
330
EE6A
100
AcDbSortentsTable
330
EE69
  0
SORTENTSTABLE
  5
EE7D
102
{ACAD_REACTORS
330
EE7C
102
}
330
EE7C
100
AcDbSortentsTable
330
EE7B
  0
XRECORD
  5
EF0D
102
{ACAD_REACTORS
330
EF0C
102
}
330
EF0C
100
AcDbXrecord
280
     1
102
SHADEPLOT
 70
     0
  0
XRECORD
  5
EF0F
102
{ACAD_REACTORS
330
EF0E
102
}
330
EF0E
100
AcDbXrecord
280
     1
102
SHADEPLOT
 70
     0
  0
LAYOUT
  5
CBD3
102
{ACAD_XDICTIONARY
360
EF0A
102
}
102
{ACAD_REACTORS
330
1A
102
}
330
1A
100
AcDbPlotSettings
  1

  2
pdfFactory Pro
  4
Letter
  6

 40
7.143749713897705
 41
7.143756389617919
 42
7.14373779296875
 43
7.14373779296875
 44
215.8999938964844
 45
279.3999938964844
 46
0.0
 47
0.0
 48
0.0
 49
0.0
140
0.0
141
0.0
142
1.0
143
1.0
 70
   688
 72
     0
 73
     0
 74
     5
  7
PellaCAD 2000.ctb
 75
    16
147
1.0
148
0.0
149
0.0
100
AcDbLayout
  1
Layout1
 70
     1
 71
     1
 10
-0.2812499887361301
 20
-0.2812502515597606
 11
8.218749770967976
 21
10.71874950814434
 12
0.0
 22
0.0
 32
0.0
 14
0.0045044512824113
 24
0.0025467006634372
 34
0.0
 15
7.932995314148659
 25
10.43495255003633
 35
0.0
146
0.0
 13
0.0
 23
0.0
 33
0.0
 16
1.0
 26
0.0
 36
0.0
 17
0.0
 27
1.0
 37
0.0
 76
     0
330
CBD2
331
CBD9
  0
LAYOUT
  5
22
102
{ACAD_XDICTIONARY
360
EEFC
102
}
102
{ACAD_REACTORS
330
1A
102
}
330
1A
100
AcDbPlotSettings
  1

  2
pdfFactory Pro
  4
D size sheet
  6

 40
3.174999952316283
 41
3.174999952316283
 42
3.17498779296875
 43
3.17498779296875
 44
558.7999877929686
 45
863.6000366210938
 46
0.0
 47
0.0
 48
0.0
 49
0.0
140
0.0
141
0.0
142
1.0
143
1.0
 70
 11956
 72
     0
 73
     0
 74
     1
  7
PellaCAD 2000.ctb
 75
    16
147
1.0
148
120.2389910741592
149
15.246356212616
100
AcDbLayout
  1
Model
 70
     1
 71
     0
 10
0.0
 20
0.0
 11
12.0
 21
9.0
 12
0.0
 22
0.0
 32
0.0
 14
0.0
 24
0.0
 34
0.0
 15
0.0
 25
0.0
 35
0.0
146
0.0
 13
0.0
 23
0.0
 33
0.0
 16
1.0
 26
0.0
 36
0.0
 17
0.0
 27
1.0
 37
0.0
 76
     0
330
1F
  0
MLINESTYLE
  5
18
102
{ACAD_REACTORS
330
17
102
}
330
17
100
AcDbMlineStyle
  2
STANDARD
 70
     0
  3

 62
   256
 51
90.0
 52
90.0
 71
     2
 49
0.5
 62
   256
  6
BYLAYER
 49
-0.5
 62
   256
  6
BYLAYER
  0
PLOTSETTINGS
  5
CBD1
102
{ACAD_XDICTIONARY
360
EF08
102
}
102
{ACAD_REACTORS
330
19
102
}
330
19
100
AcDbPlotSettings
  1
22x17 Xerox8830
  2
Xes 8830 for 2004.pc3
  4
ANSI_C_(22.00_x_17.00_Inches)
  6

 40
6.793749809265136
 41
6.793749809265136
 42
6.79376220703125
 43
6.79376220703125
 44
558.7999877929686
 45
431.7999877929686
 46
0.0
 47
35.81399999999999
 48
0.0
 49
0.0
140
0.0
141
0.0
142
1.0
143
1.495243499491589
 70
   692
 72
     0
 73
     0
 74
     1
  7
PellaCAD 2000.ctb
 75
     0
147
0.6687873917124656
148
-21.59157886640523
149
-6.230335335960706
  0
PLOTSETTINGS
  5
CBD0
102
{ACAD_XDICTIONARY
360
EF06
102
}
102
{ACAD_REACTORS
330
19
102
}
330
19
100
AcDbPlotSettings
  1
22x34 Xerox8830
  2
Xes 8830 for 2004.pc3
  4
ANSI_D_(22.00_x_34.00_Inches)
  6

 40
6.793749809265136
 41
6.793749809265136
 42
6.79376220703125
 43
6.79376220703125
 44
558.7999877929686
 45
863.5999755859375
 46
13.462
 47
17.272
 48
0.0
 49
0.0
140
0.0
141
0.0
142
1.0
143
1.0
 70
   692
 72
     0
 73
     1
 74
     1
  7
PellaCAD 2000.ctb
 75
    16
147
1.0
148
-21.59157886640523
149
-6.230335335960706
  0
PLOTSETTINGS
  5
B30E
102
{ACAD_XDICTIONARY
360
EEFE
102
}
102
{ACAD_REACTORS
330
19
102
}
330
19
100
AcDbPlotSettings
  1
8.5x11(row 1)
  2
\\pelsprnt02\PECSP13
  4
Letter
  6

 40
7.143749713897705
 41
5.027085304260253
 42
7.14373779296875
 43
5.027069091796875
 44
215.8999938964844
 45
279.3999938964844
 46
2.285999999999999
 47
3.556
 48
0.0
 49
0.0
140
0.0
141
0.0
142
1.0
143
1.0
 70
   692
 72
     0
 73
     0
 74
     1
  7
PellaCAD 2000.ctb
 75
    16
147
1.0
148
-4.158432903504825
149
-3.617288020760523
  0
PLOTSETTINGS
  5
BF67
102
{ACAD_XDICTIONARY
360
EF00
102
}
102
{ACAD_REACTORS
330
19
102
}
330
19
100
AcDbPlotSettings
  1
8.5x11(row 2)
  2
\\pelsprnt01\PEASP5
  4
User144
  6

 40
6.349999904632567
 41
4.233341693878172
 42
6.349990844726562
 43
4.23333740234375
 44
215.8999938964844
 45
279.3999938964844
 46
3.047999999999998
 47
4.318
 48
0.0
 49
0.0
140
0.0
141
0.0
142
1.0
143
1.0
 70
   692
 72
     0
 73
     0
 74
     1
  7
PellaCAD 2000.ctb
 75
    16
147
1.0
148
-4.158432903504825
149
-3.617288020760523
  0
PLOTSETTINGS
  5
BF68
102
{ACAD_XDICTIONARY
360
EF02
102
}
102
{ACAD_REACTORS
330
19
102
}
330
19
100
AcDbPlotSettings
  1
8.5x11(row 3)
  2
\\pelsprnt01\peslp0
  4
Letter
  6

 40
5.365749835968016
 41
5.408084392547606
 42
5.4080810546875
 43
5.365753173828125
 44
215.8999938964844
 45
279.3999938964844
 46
4.064
 47
3.302
 48
0.0
 49
0.0
140
0.0
141
0.0
142
1.0
143
1.0
 70
   692
 72
     0
 73
     0
 74
     1
  7
PellaCAD 2000.ctb
 75
    16
147
1.0
148
-4.158432903504825
149
-3.617288020760523
  0
PLOTSETTINGS
  5
BF69
102
{ACAD_XDICTIONARY
360
EF04
102
}
102
{ACAD_REACTORS
330
19
102
}
330
19
100
AcDbPlotSettings
  1
8.5x11(row 4)
  2
\\pelsprnt02\PEASP6
  4
Letter
  6

 40
7.143749713897705
 41
5.027085304260253
 42
7.14373779296875
 43
5.027069091796875
 44
215.8999938964844
 45
279.3999938964844
 46
2.285999999999999
 47
3.556
 48
0.0
 49
0.0
140
0.0
141
0.0
142
1.0
143
1.0
 70
   692
 72
     0
 73
     0
 74
     1
  7
PellaCAD 2000.ctb
 75
    16
147
1.0
148
-4.158432903504825
149
-3.617288020760523
  0
ACDBPLACEHOLDER
  5
F
102
{ACAD_REACTORS
330
E
102
}
330
E
  0
XRECORD
  5
EEFB
102
{ACAD_REACTORS
330
EEF9
102
}
330
EEF9
100
AcDbXrecord
280
     1
340
A6AD
  0
XRECORD
  5
EEFA
102
{ACAD_REACTORS
330
EEF9
102
}
330
EEF9
100
AcDbXrecord
280
     1
340
A6AC
  0
DICTIONARYVAR
  5
79DA
102
{ACAD_REACTORS
330
79D9
102
}
330
79D9
100
DictionaryVariables
280
     0
  1
2
  0
DICTIONARYVAR
  5
ED58
102
{ACAD_REACTORS
330
79D9
102
}
330
79D9
100
DictionaryVariables
280
     0
  1

  0
XRECORD
  5
1047
102
{ACAD_REACTORS
330
1012
102
}
330
1012
100
AcDbXrecord
280
     1
1000
ADE02C001
1070
     1
1070
     0
1002
{
1002
}
1002
{
1002
}
1002
{
1002
}
1000

  0
ACAD_PROXY_OBJECT
  5
1BA
102
{ACAD_REACTORS
330
1B9
102
}
330
1B9
100
AcDbProxyObject
 90
      499
 91
      504
 95
   983063
 70
     0
 93
       51
310
40502896026440
 94
        0
1001
ACAD
1000
AcRTDxfName
1000
AMLOADER
1000
AcRTDxfName
1000
AMLOADER
1000
AcRTDxfName
1000
AMLOADER
  0
XRECORD
  5
E0A7
102
{ACAD_REACTORS
330
E0A6
102
}
330
E0A6
100
AcDbXrecord
280
     1
330
0
330
0
  0
DICTIONARY
  5
EF0A
330
CBD3
100
AcDbDictionary
280
     1
281
     1
  3
ACAD_XREC_ROUNDTRIP
360
EF0B
  0
DICTIONARY
  5
EEFC
330
22
100
AcDbDictionary
280
     1
281
     1
  3
ACAD_XREC_ROUNDTRIP
360
EEFD
  0
DICTIONARY
  5
EF08
330
CBD1
100
AcDbDictionary
280
     1
281
     1
  3
ACAD_XREC_ROUNDTRIP
360
EF09
  0
DICTIONARY
  5
EF06
330
CBD0
100
AcDbDictionary
280
     1
281
     1
  3
ACAD_XREC_ROUNDTRIP
360
EF07
  0
DICTIONARY
  5
EEFE
330
B30E
100
AcDbDictionary
280
     1
281
     1
  3
ACAD_XREC_ROUNDTRIP
360
EEFF
  0
DICTIONARY
  5
EF00
330
BF67
100
AcDbDictionary
280
     1
281
     1
  3
ACAD_XREC_ROUNDTRIP
360
EF01
  0
DICTIONARY
  5
EF02
330
BF68
100
AcDbDictionary
280
     1
281
     1
  3
ACAD_XREC_ROUNDTRIP
360
EF03
  0
DICTIONARY
  5
EF04
330
BF69
100
AcDbDictionary
280
     1
281
     1
  3
ACAD_XREC_ROUNDTRIP
360
EF05
  0
XRECORD
  5
EF0B
102
{ACAD_REACTORS
330
EF0A
102
}
330
EF0A
100
AcDbXrecord
280
     1
102
SHADEPLOT
 70
     1
102
SHADEPLOTRESLEVEL
 70
     2
102
SHADEPLOTCUSTOMDPI
 70
   150
  0
XRECORD
  5
EEFD
102
{ACAD_REACTORS
330
EEFC
102
}
330
EEFC
100
AcDbXrecord
280
     1
102
SHADEPLOT
 70
     0
102
SHADEPLOTRESLEVEL
 70
     2
102
SHADEPLOTCUSTOMDPI
 70
   300
  0
XRECORD
  5
EF09
102
{ACAD_REACTORS
330
EF08
102
}
330
EF08
100
AcDbXrecord
280
     1
102
SHADEPLOT
 70
     1
102
SHADEPLOTRESLEVEL
 70
     2
102
SHADEPLOTCUSTOMDPI
 70
   200
  0
XRECORD
  5
EF07
102
{ACAD_REACTORS
330
EF06
102
}
330
EF06
100
AcDbXrecord
280
     1
102
SHADEPLOT
 70
     1
102
SHADEPLOTRESLEVEL
 70
     2
102
SHADEPLOTCUSTOMDPI
 70
   200
  0
XRECORD
  5
EEFF
102
{ACAD_REACTORS
330
EEFE
102
}
330
EEFE
100
AcDbXrecord
280
     1
102
SHADEPLOT
 70
     1
102
SHADEPLOTRESLEVEL
 70
     2
102
SHADEPLOTCUSTOMDPI
 70
   300
  0
XRECORD
  5
EF01
102
{ACAD_REACTORS
330
EF00
102
}
330
EF00
100
AcDbXrecord
280
     1
102
SHADEPLOT
 70
     1
102
SHADEPLOTRESLEVEL
 70
     2
102
SHADEPLOTCUSTOMDPI
 70
   300
  0
XRECORD
  5
EF03
102
{ACAD_REACTORS
330
EF02
102
}
330
EF02
100
AcDbXrecord
280
     1
102
SHADEPLOT
 70
     1
102
SHADEPLOTRESLEVEL
 70
     2
102
SHADEPLOTCUSTOMDPI
 70
   300
  0
XRECORD
  5
EF05
102
{ACAD_REACTORS
330
EF04
102
}
330
EF04
100
AcDbXrecord
280
     1
102
SHADEPLOT
 70
     1
102
SHADEPLOTRESLEVEL
 70
     2
102
SHADEPLOTCUSTOMDPI
 70
   300
  0
ENDSEC
  0
EOF
