  0
SECTION
  2
HEADER
  9
$ACADVER
  1
AC1015
  9
$ACADMAINTVER
 70
    18
  9
$DWGCODEPAGE
  3
ANSI_1252
  9
$INSBASE
 10
0.0
 20
0.0
 30
0.0
  9
$EXTMIN
 10
17.70070068349766
 20
571.8446379381231
 30
-0.0000000349181977
  9
$EXTMAX
 10
608.0023217881215
 20
849.4844234823872
 30
0.0000000814935717
  9
$LIMMIN
 10
0.0
 20
0.0
  9
$LIMMAX
 10
12.0
 20
9.0
  9
$ORTHOMODE
 70
     1
  9
$REGENMODE
 70
     1
  9
$FILLMODE
 70
     1
  9
$QTEXTMODE
 70
     0
  9
$MIRRTEXT
 70
     0
  9
$LTSCALE
 40
0.5
  9
$ATTMODE
 70
     1
  9
$TEXTSIZE
 40
1.0
  9
$TRACEWID
 40
0.05
  9
$TEXTSTYLE
  7
ARCHQUIK
  9
$CLAYER
  8
0
  9
$CELTYPE
  6
ByLayer
  9
$CECOLOR
 62
   256
  9
$CELTSCALE
 40
1.0
  9
$DISPSILH
 70
     0
  9
$DIMSCALE
 40
1.0
  9
$DIMASZ
 40
2.0
  9
$DIMEXO
 40
3.0
  9
$DIMDLI
 40
0.2
  9
$DIMRND
 40
0.0
  9
$DIMDLE
 40
0.0
  9
$DIMEXE
 40
0.0625
  9
$DIMTP
 40
0.0
  9
$DIMTM
 40
0.0
  9
$DIMTXT
 40
1.919999999999999
  9
$DIMCEN
 40
0.09
  9
$DIMTSZ
 40
0.0
  9
$DIMTOL
 70
     0
  9
$DIMLIM
 70
     0
  9
$DIMTIH
 70
     0
  9
$DIMTOH
 70
     1
  9
$DIMSE1
 70
     0
  9
$DIMSE2
 70
     0
  9
$DIMTAD
 70
     1
  9
$DIMZIN
 70
     0
  9
$DIMBLK
  1

  9
$DIMASO
 70
     1
  9
$DIMSHO
 70
     1
  9
$DIMPOST
  1

  9
$DIMAPOST
  1

  9
$DIMALT
 70
     0
  9
$DIMALTD
 70
     2
  9
$DIMALTF
 40
25.4
  9
$DIMLFAC
 40
1.0
  9
$DIMTOFL
 70
     0
  9
$DIMTVP
 40
0.0
  9
$DIMTIX
 70
     0
  9
$DIMSOXD
 70
     0
  9
$DIMSAH
 70
     0
  9
$DIMBLK1
  1

  9
$DIMBLK2
  1

  9
$DIMSTYLE
  2
Standard
  9
$DIMCLRD
 70
    30
  9
$DIMCLRE
 70
    30
  9
$DIMCLRT
 70
     7
  9
$DIMTFAC
 40
0.75
  9
$DIMGAP
 40
1.199999999999999
  9
$DIMJUST
 70
     0
  9
$DIMSD1
 70
     0
  9
$DIMSD2
 70
     0
  9
$DIMTOLJ
 70
     1
  9
$DIMTZIN
 70
     0
  9
$DIMALTZ
 70
     0
  9
$DIMALTTZ
 70
     0
  9
$DIMUPT
 70
     0
  9
$DIMDEC
 70
     6
  9
$DIMTDEC
 70
     6
  9
$DIMALTU
 70
     2
  9
$DIMALTTD
 70
     2
  9
$DIMTXSTY
  7
Standard
  9
$DIMAUNIT
 70
     0
  9
$DIMADEC
 70
     3
  9
$DIMALTRND
 40
0.0
  9
$DIMAZIN
 70
     0
  9
$DIMDSEP
 70
    46
  9
$DIMATFIT
 70
     3
  9
$DIMFRAC
 70
     1
  9
$DIMLDRBLK
  1

  9
$DIMLUNIT
 70
     2
  9
$DIMLWD
 70
    -2
  9
$DIMLWE
 70
    -2
  9
$DIMTMOVE
 70
     0
  9
$LUNITS
 70
     2
  9
$LUPREC
 70
     4
  9
$SKETCHINC
 40
0.1
  9
$FILLETRAD
 40
0.0
  9
$AUNITS
 70
     0
  9
$AUPREC
 70
     3
  9
$MENU
  1
.
  9
$ELEVATION
 40
0.0
  9
$PELEVATION
 40
0.0
  9
$THICKNESS
 40
0.0
  9
$LIMCHECK
 70
     0
  9
$CHAMFERA
 40
0.5
  9
$CHAMFERB
 40
0.5
  9
$CHAMFERC
 40
1.0
  9
$CHAMFERD
 40
0.0
  9
$SKPOLY
 70
     0
  9
$TDCREATE
 40
2453620.458702304
  9
$TDUCREATE
 40
2453620.708702303
  9
$TDUPDATE
 40
2455630.691893299
  9
$TDUUPDATE
 40
2455630.941893299
  9
$TDINDWG
 40
2.1611870023
  9
$TDUSRTIMER
 40
2.1611860995
  9
$USRTIMER
 70
     1
  9
$ANGBASE
 50
0.0
  9
$ANGDIR
 70
     0
  9
$PDMODE
 70
    34
  9
$PDSIZE
 40
0.005
  9
$PLINEWID
 40
0.0
  9
$SPLFRAME
 70
     0
  9
$SPLINETYPE
 70
     6
  9
$SPLINESEGS
 70
     8
  9
$HANDSEED
  5
2AB7D
  9
$SURFTAB1
 70
     6
  9
$SURFTAB2
 70
     6
  9
$SURFTYPE
 70
     6
  9
$SURFU
 70
     6
  9
$SURFV
 70
     6
  9
$UCSBASE
  2

  9
$UCSNAME
  2

  9
$UCSORG
 10
0.0
 20
0.0
 30
0.0
  9
$UCSXDIR
 10
1.0
 20
0.0
 30
0.0
  9
$UCSYDIR
 10
0.0
 20
1.0
 30
0.0
  9
$UCSORTHOREF
  2

  9
$UCSORTHOVIEW
 70
     0
  9
$UCSORGTOP
 10
0.0
 20
0.0
 30
0.0
  9
$UCSORGBOTTOM
 10
0.0
 20
0.0
 30
0.0
  9
$UCSORGLEFT
 10
0.0
 20
0.0
 30
0.0
  9
$UCSORGRIGHT
 10
0.0
 20
0.0
 30
0.0
  9
$UCSORGFRONT
 10
0.0
 20
0.0
 30
0.0
  9
$UCSORGBACK
 10
0.0
 20
0.0
 30
0.0
  9
$PUCSBASE
  2

  9
$PUCSNAME
  2

  9
$PUCSORG
 10
0.0
 20
0.0
 30
0.0
  9
$PUCSXDIR
 10
1.0
 20
0.0
 30
0.0
  9
$PUCSYDIR
 10
0.0
 20
1.0
 30
0.0
  9
$PUCSORTHOREF
  2

  9
$PUCSORTHOVIEW
 70
     0
  9
$PUCSORGTOP
 10
0.0
 20
0.0
 30
0.0
  9
$PUCSORGBOTTOM
 10
0.0
 20
0.0
 30
0.0
  9
$PUCSORGLEFT
 10
0.0
 20
0.0
 30
0.0
  9
$PUCSORGRIGHT
 10
0.0
 20
0.0
 30
0.0
  9
$PUCSORGFRONT
 10
0.0
 20
0.0
 30
0.0
  9
$PUCSORGBACK
 10
0.0
 20
0.0
 30
0.0
  9
$USERI1
 70
     0
  9
$USERI2
 70
     0
  9
$USERI3
 70
     0
  9
$USERI4
 70
     0
  9
$USERI5
 70
     0
  9
$USERR1
 40
24.0
  9
$USERR2
 40
0.0
  9
$USERR3
 40
22.0
  9
$USERR4
 40
0.0
  9
$USERR5
 40
0.0
  9
$WORLDVIEW
 70
     1
  9
$SHADEDGE
 70
     3
  9
$SHADEDIF
 70
    70
  9
$TILEMODE
 70
     1
  9
$MAXACTVP
 70
    64
  9
$PINSBASE
 10
0.0
 20
0.0
 30
0.0
  9
$PLIMCHECK
 70
     0
  9
$PEXTMIN
 10
0.0
 20
0.0
 30
0.0
  9
$PEXTMAX
 10
0.0
 20
0.0
 30
0.0
  9
$PLIMMIN
 10
0.0
 20
0.0
  9
$PLIMMAX
 10
12.0
 20
9.0
  9
$UNITMODE
 70
     0
  9
$VISRETAIN
 70
     1
  9
$PLINEGEN
 70
     0
  9
$PSLTSCALE
 70
     1
  9
$TREEDEPTH
 70
  3020
  9
$CMLSTYLE
  2
Standard
  9
$CMLJUST
 70
     0
  9
$CMLSCALE
 40
1.0
  9
$PROXYGRAPHICS
 70
     1
  9
$MEASUREMENT
 70
     0
  9
$CELWEIGHT
370
    -1
  9
$ENDCAPS
280
     0
  9
$JOINSTYLE
280
     0
  9
$LWDISPLAY
290
     0
  9
$INSUNITS
 70
     1
  9
$HYPERLINKBASE
  1

  9
$STYLESHEET
  1

  9
$XEDIT
290
     1
  9
$CEPSNTYPE
380
     0
  9
$PSTYLEMODE
290
     1
  9
$FINGERPRINTGUID
  2
{FDEAD576-A652-11D2-9A35-0060089B3A3F}
  9
$VERSIONGUID
  2
{F2507A21-17F9-4D02-8CA7-FDD8103A3604}
  9
$EXTNAMES
290
     1
  9
$PSVPSCALE
 40
0.0
  9
$OLESTARTUP
290
     0
  0
ENDSEC
  0
SECTION
  2
CLASSES
  0
CLASS
  1
ACDBDICTIONARYWDFLT
  2
AcDbDictionaryWithDefault
  3
ObjectDBX Classes
 90
        0
280
     0
281
     0
  0
CLASS
  1
ACDBPLACEHOLDER
  2
AcDbPlaceHolder
  3
ObjectDBX Classes
 90
        0
280
     0
281
     0
  0
CLASS
  1
LAYOUT
  2
AcDbLayout
  3
ObjectDBX Classes
 90
        0
280
     0
281
     0
  0
CLASS
  1
PLOTSETTINGS
  2
AcDbPlotSettings
  3
ObjectDBX Classes
 90
        0
280
     0
281
     0
  0
CLASS
  1
AMLOADER
  2
AMLoader
  3
AMAcad
 90
        0
280
     0
281
     0
  0
CLASS
  1
DICTIONARYVAR
  2
AcDbDictionaryVar
  3
ObjectDBX Classes
 90
        0
280
     0
281
     0
  0
CLASS
  1
SORTENTSTABLE
  2
AcDbSortentsTable
  3
ObjectDBX Classes
 90
        0
280
     0
281
     0
  0
CLASS
  1
MATERIAL
  2
AcDbMaterial
  3
ObjectDBX Classes
 90
     1153
280
     0
281
     0
  0
CLASS
  1
VISUALSTYLE
  2
AcDbVisualStyle
  3
ObjectDBX Classes
 90
     4095
280
     0
281
     0
  0
CLASS
  1
TABLESTYLE
  2
AcDbTableStyle
  3
ObjectDBX Classes
 90
     4095
280
     0
281
     0
  0
CLASS
  1
SCALE
  2
AcDbScale
  3
ObjectDBX Classes
 90
     1153
280
     0
281
     0
  0
CLASS
  1
MLEADERSTYLE
  2
AcDbMLeaderStyle
  3
ACDB_MLEADERSTYLE_CLASS
 90
     4095
280
     0
281
     0
  0
CLASS
  1
CELLSTYLEMAP
  2
AcDbCellStyleMap
  3
ObjectDBX Classes
 90
     1152
280
     0
281
     0
  0
CLASS
  1
DIMASSOC
  2
AcDbDimAssoc
  3
"AcDbDimAssoc|Product Desc:     AcDim ARX App For Dimension|Company:          Autodesk, Inc.|WEB Address:      www.autodesk.com"
 90
    32768
280
     0
281
     0
  0
CLASS
  1
ACAD_EVALUATION_GRAPH
  2
AcDbEvalGraph
  3
ObjectDBX Classes
 90
    33921
280
     0
281
     0
  0
CLASS
  1
ACAECUSTOBJ
  2
AcAeEditorObj
  3
AcAeEditorObj
 90
    33792
280
     0
281
     0
  0
CLASS
  1
ACDB_DYNAMICBLOCKPURGEPREVENTER_VERSION
  2
AcDbDynamicBlockPurgePreventer
  3
ObjectDBX Classes
 90
    33921
280
     0
281
     0
  0
ENDSEC
  0
SECTION
  2
TABLES
  0
TABLE
  2
VPORT
  5
8
102
{ACAD_XDICTIONARY
360
29223
102
}
330
0
100
AcDbSymbolTable
 70
     1
  0
VPORT
  5
28BDD
330
8
100
AcDbSymbolTableRecord
100
AcDbViewportTableRecord
  2
*Active
 70
     0
 10
0.0
 20
0.0
 11
1.0
 21
1.0
 12
312.8515112358096
 22
710.6645307102552
 13
0.0
 23
0.0
 14
1.0
 24
1.0
 15
0.5
 25
0.5
 16
0.0
 26
0.0
 36
1.0
 17
0.0
 27
0.0
 37
0.0
 40
371.6191833937002
 41
1.596888260254596
 42
50.0
 43
0.0
 44
0.0
 50
0.0
 51
0.0
 71
     0
 72
  1000
 73
     1
 74
     0
 75
     0
 76
     0
 77
     0
 78
     0
281
     0
 65
     1
110
0.0
120
0.0
130
0.0
111
1.0
121
0.0
131
0.0
112
0.0
122
1.0
132
0.0
 79
     0
146
0.0
  0
ENDTAB
  0
TABLE
  2
LTYPE
  5
5
330
0
100
AcDbSymbolTable
 70
     2
  0
LTYPE
  5
14
330
5
100
AcDbSymbolTableRecord
100
AcDbLinetypeTableRecord
  2
ByBlock
 70
     0
  3

 72
    65
 73
     0
 40
0.0
  0
LTYPE
  5
15
330
5
100
AcDbSymbolTableRecord
100
AcDbLinetypeTableRecord
  2
ByLayer
 70
     0
  3

 72
    65
 73
     0
 40
0.0
  0
LTYPE
  5
16
330
5
100
AcDbSymbolTableRecord
100
AcDbLinetypeTableRecord
  2
Continuous
 70
     0
  3
Solid line
 72
    65
 73
     0
 40
0.0
  0
LTYPE
  5
29991
330
5
100
AcDbSymbolTableRecord
100
AcDbLinetypeTableRecord
  2
DASHED
 70
     0
  3
Dashed __ __ __ __ __ __ __ __ __ __ __ __ __ _
 72
    65
 73
     2
 40
0.75
 49
0.5
 74
     0
 49
-0.25
 74
     0
  0
ENDTAB
  0
TABLE
  2
LAYER
  5
2
102
{ACAD_XDICTIONARY
360
13579
102
}
330
0
100
AcDbSymbolTable
 70
    10
  0
LAYER
  5
10
102
{ACAD_XDICTIONARY
360
28E32
102
}
330
2
100
AcDbSymbolTableRecord
100
AcDbLayerTableRecord
  2
0
 70
     0
 62
     7
  6
Continuous
370
    -3
390
F
  0
LAYER
  5
1462C
102
{ACAD_XDICTIONARY
360
28E36
102
}
330
2
100
AcDbSymbolTableRecord
100
AcDbLayerTableRecord
  2
Pel_TXT
 70
     0
 62
   255
  6
Continuous
370
    -3
390
F
  0
LAYER
  5
1462D
102
{ACAD_XDICTIONARY
360
28E38
102
}
330
2
100
AcDbSymbolTableRecord
100
AcDbLayerTableRecord
  2
Pel_Frame_Outside
 70
     0
 62
    84
  6
Continuous
370
    -3
390
F
  0
LAYER
  5
1462E
102
{ACAD_XDICTIONARY
360
28E3A
102
}
330
2
100
AcDbSymbolTableRecord
100
AcDbLayerTableRecord
  2
Pel_Sash_Outside
 70
     0
 62
    84
  6
Continuous
370
    -3
390
F
  0
LAYER
  5
15439
102
{ACAD_XDICTIONARY
360
28E4A
102
}
330
2
100
AcDbSymbolTableRecord
100
AcDbLayerTableRecord
  2
Pel_Points
 70
     0
 62
     7
  6
Continuous
290
     0
370
    -3
390
F
  0
LAYER
  5
19873
102
{ACAD_XDICTIONARY
360
28E4C
102
}
330
2
100
AcDbSymbolTableRecord
100
AcDbLayerTableRecord
  2
Pel_Muntin_AS
 70
     0
 62
    84
  6
Continuous
370
    -3
390
F
  0
LAYER
  5
28E85
102
{ACAD_XDICTIONARY
360
28E86
102
}
330
2
100
AcDbSymbolTableRecord
100
AcDbLayerTableRecord
  2
Pel_Sash_Inside
 70
     0
 62
     3
  6
Continuous
370
    -3
390
F
  0
LAYER
  5
29992
102
{ACAD_XDICTIONARY
360
29993
102
}
330
2
100
AcDbSymbolTableRecord
100
AcDbLayerTableRecord
  2
Pel_Hinging
 70
     0
 62
   132
  6
DASHED
370
    -3
390
F
  0
ENDTAB
  0
TABLE
  2
STYLE
  5
3
330
0
100
AcDbSymbolTable
 70
     2
  0
STYLE
  5
11
330
3
100
AcDbSymbolTableRecord
100
AcDbTextStyleTableRecord
  2
Standard
 70
     0
 40
0.0
 41
1.0
 50
0.0
 71
     0
 42
0.2
  3
ARIAL.TTF
  4

1001
ACAD
1000
Arial
1071
       34
  0
STYLE
  5
1536F
330
3
100
AcDbSymbolTableRecord
100
AcDbTextStyleTableRecord
  2
ARCHQUIK
 70
     0
 40
0.0
 41
1.0
 50
0.0
 71
     0
 42
1.0
  3
archquik.shx
  4

  0
ENDTAB
  0
TABLE
  2
VIEW
  5
6
330
0
100
AcDbSymbolTable
 70
     1
  0
VIEW
  5
121BB
330
6
100
AcDbSymbolTableRecord
100
AcDbViewTableRecord
  2
org
 70
     0
 40
111.2574309029219
 10
571.8869122333773
 20
70.95957836411844
 41
161.9957098311775
 11
0.0
 21
0.0
 31
1.0
 12
0.0
 22
0.0
 32
0.0
 42
50.0
 43
0.0
 44
0.0
 50
0.0
 71
     0
281
     0
 72
     1
110
0.0
120
0.0
130
0.0
111
1.0
121
0.0
131
0.0
112
0.0
122
1.0
132
0.0
 79
     0
146
0.0
  0
ENDTAB
  0
TABLE
  2
UCS
  5
7
330
0
100
AcDbSymbolTable
 70
     0
  0
ENDTAB
  0
TABLE
  2
APPID
  5
9
330
0
100
AcDbSymbolTable
 70
    24
  0
APPID
  5
12
330
9
100
AcDbSymbolTableRecord
100
AcDbRegAppTableRecord
  2
ACAD
 70
     0
  0
APPID
  5
1B8
330
9
100
AcDbSymbolTableRecord
100
AcDbRegAppTableRecord
  2
AMAcad
 70
     0
  0
APPID
  5
FBF
330
9
100
AcDbSymbolTableRecord
100
AcDbRegAppTableRecord
  2
ADE
 70
     0
  0
APPID
  5
1010
330
9
100
AcDbSymbolTableRecord
100
AcDbRegAppTableRecord
  2
DCO15
 70
     0
  0
APPID
  5
2B00
330
9
100
AcDbSymbolTableRecord
100
AcDbRegAppTableRecord
  2
ADCADD_ZZ
 70
     0
  0
APPID
  5
2B01
330
9
100
AcDbSymbolTableRecord
100
AcDbRegAppTableRecord
  2
SDSK_PMN
 70
     0
  0
APPID
  5
EE18
330
9
100
AcDbSymbolTableRecord
100
AcDbRegAppTableRecord
  2
GENIUS_GENODEF_13
 70
     0
  0
APPID
  5
EE19
330
9
100
AcDbSymbolTableRecord
100
AcDbRegAppTableRecord
  2
GENIUS_GENOBJ-N-FIL_13
 70
     0
  0
APPID
  5
EE1A
330
9
100
AcDbSymbolTableRecord
100
AcDbRegAppTableRecord
  2
GENIUS_GENDTOL_13
 70
     0
  0
APPID
  5
EE1B
330
9
100
AcDbSymbolTableRecord
100
AcDbRegAppTableRecord
  2
AVE_RENDER
 70
     0
  0
APPID
  5
EE1C
330
9
100
AcDbSymbolTableRecord
100
AcDbRegAppTableRecord
  2
AVE_ENTITY_MATERIAL
 70
     0
  0
APPID
  5
EE1D
330
9
100
AcDbSymbolTableRecord
100
AcDbRegAppTableRecord
  2
AVE_FINISH
 70
     0
  0
APPID
  5
EE1E
330
9
100
AcDbSymbolTableRecord
100
AcDbRegAppTableRecord
  2
AVE_MATERIAL
 70
     0
  0
APPID
  5
EE1F
330
9
100
AcDbSymbolTableRecord
100
AcDbRegAppTableRecord
  2
AVE_GLOBAL
 70
     0
  0
APPID
  5
28C42
330
9
100
AcDbSymbolTableRecord
100
AcDbRegAppTableRecord
  2
ACAD_MLEADERVER
 70
     0
  0
APPID
  5
28C5D
330
9
100
AcDbSymbolTableRecord
100
AcDbRegAppTableRecord
  2
ACAD_PSEXT
 70
     0
  0
APPID
  5
28C5E
330
9
100
AcDbSymbolTableRecord
100
AcDbRegAppTableRecord
  2
ACAD_DSTYLE_DIMJAG
 70
     0
  0
APPID
  5
28C5F
330
9
100
AcDbSymbolTableRecord
100
AcDbRegAppTableRecord
  2
ACAD_DSTYLE_DIMTALN
 70
     0
  0
APPID
  5
28CF2
330
9
100
AcDbSymbolTableRecord
100
AcDbRegAppTableRecord
  2
AcAecLayerStandard
 70
     0
  0
APPID
  5
29661
330
9
100
AcDbSymbolTableRecord
100
AcDbRegAppTableRecord
  2
ACAUTHENVIRON
 70
     0
  0
APPID
  5
296EA
330
9
100
AcDbSymbolTableRecord
100
AcDbRegAppTableRecord
  2
AcDbDynamicBlockTrueName
 70
     0
  0
APPID
  5
296EB
330
9
100
AcDbSymbolTableRecord
100
AcDbRegAppTableRecord
  2
AcDbDynamicBlockGUID
 70
     0
  0
APPID
  5
297E7
330
9
100
AcDbSymbolTableRecord
100
AcDbRegAppTableRecord
  2
AcadAnnotative
 70
     0
  0
APPID
  5
29927
330
9
100
AcDbSymbolTableRecord
100
AcDbRegAppTableRecord
  2
ACAD_EXEMPT_FROM_CAD_STANDARDS
 70
     0
  0
ENDTAB
  0
TABLE
  2
DIMSTYLE
  5
A
330
0
100
AcDbSymbolTable
 70
     1
100
AcDbDimStyleTable
 71
     1
340
27
  0
DIMSTYLE
105
27
330
A
100
AcDbSymbolTableRecord
100
AcDbDimStyleTableRecord
  2
Standard
 70
     0
 41
2.666666666666666
 42
3.0
 43
0.2
 44
0.0625
 73
     0
 77
     1
 78
     2
140
0.09375
146
0.75
147
1.199999999999999
176
    30
177
    30
178
     7
179
     3
271
     6
272
     6
276
     1
279
     2
340
11
  0
ENDTAB
  0
TABLE
  2
BLOCK_RECORD
  5
1
330
0
100
AcDbSymbolTable
 70
    26
  0
BLOCK_RECORD
  5
1F
102
{ACAD_XDICTIONARY
360
12221
102
}
330
1
100
AcDbSymbolTableRecord
100
AcDbBlockTableRecord
  2
*Model_Space
340
22
  0
BLOCK_RECORD
  5
13559
330
1
100
AcDbSymbolTableRecord
100
AcDbBlockTableRecord
  2
*Paper_Space
340
1355A
  0
BLOCK_RECORD
  5
149C3
102
{ACAD_XDICTIONARY
360
2AB2A
102
}
330
1
100
AcDbSymbolTableRecord
100
AcDbBlockTableRecord
  2
341
340
0
102
{BLKREFS
331
2A04D
331
2A054
331
2A099
331
2A0C9
331
2A0CA
331
2A0CB
331
2A0D5
331
2A0D6
331
2A0D7
331
2A0F9
331
2A0FA
331
2A0FC
102
}
  0
BLOCK_RECORD
  5
1571D
330
1
100
AcDbSymbolTableRecord
100
AcDbBlockTableRecord
  2
342
340
0
102
{BLKREFS
331
2A04F
331
2A068
331
2A0CC
331
2A0D4
331
2A0FB
331
2AB1C
102
}
  0
BLOCK_RECORD
  5
263E7
102
{ACAD_XDICTIONARY
360
2970A
102
}
330
1
100
AcDbSymbolTableRecord
100
AcDbBlockTableRecord
  2
ASPCHP4717T
340
0
310
2800000020000000200000000100080000000000000400000000000000000000000000000000000000000000000080000080000000808000800000008000800080800000C0C0C000C0DCC000F0CAA6000020400000206000002080000020A0000020C0000020E00000400000004020000040400000406000004080000040A0
310
000040C0000040E00000600000006020000060400000606000006080000060A0000060C0000060E00000800000008020000080400000806000008080000080A0000080C0000080E00000A0000000A0200000A0400000A0600000A0800000A0A00000A0C00000A0E00000C0000000C0200000C0400000C0600000C0800000C0
310
A00000C0C00000C0E00000E0000000E0200000E0400000E0600000E0800000E0A00000E0C00000E0E00040000000400020004000400040006000400080004000A0004000C0004000E00040200000402020004020400040206000402080004020A0004020C0004020E000404000004040200040404000404060004040800040
310
40A0004040C0004040E00040600000406020004060400040606000406080004060A0004060C0004060E00040800000408020004080400040806000408080004080A0004080C0004080E00040A0000040A0200040A0400040A0600040A0800040A0A00040A0C00040A0E00040C0000040C0200040C0400040C0600040C08000
310
40C0A00040C0C00040C0E00040E0000040E0200040E0400040E0600040E0800040E0A00040E0C00040E0E00080000000800020008000400080006000800080008000A0008000C0008000E00080200000802020008020400080206000802080008020A0008020C0008020E00080400000804020008040400080406000804080
310
008040A0008040C0008040E00080600000806020008060400080606000806080008060A0008060C0008060E00080800000808020008080400080806000808080008080A0008080C0008080E00080A0000080A0200080A0400080A0600080A0800080A0A00080A0C00080A0E00080C0000080C0200080C0400080C0600080C0
310
800080C0A00080C0C00080C0E00080E0000080E0200080E0400080E0600080E0800080E0A00080E0C00080E0E000C0000000C0002000C0004000C0006000C0008000C000A000C000C000C000E000C0200000C0202000C0204000C0206000C0208000C020A000C020C000C020E000C0400000C0402000C0404000C0406000C0
310
408000C040A000C040C000C040E000C0600000C0602000C0604000C0606000C0608000C060A000C060C000C060E000C0800000C0802000C0804000C0806000C0808000C080A000C080C000C080E000C0A00000C0A02000C0A04000C0A06000C0A08000C0A0A000C0A0C000C0A0E000C0C00000C0C02000C0C04000C0C06000
310
C0C08000C0C0A000F0FBFF00A4A0A000808080000000FF0000FF000000FFFF00FF000000FF00FF00FFFF0000FFFFFF0000000000000000000000000000000000000000000000000000000000000000000000000000000000000029292929292929292929292900000000000000000000000000000000000000002929292929
310
29292929292929000000000000000000000000000000000000000029292929292929292929292900000000000000000000000000000000000000002929290000292900002929290000000000000000000000000000000000000000292929000029290000292929000000000000000000000000000000000000000029292900
310
00292900002929290000000000000000000000000000000000000000292929000029290000292929000000000000000000000000000000000000000029292900002929000029292900000000000000000000000000000000000000002929292929292929292929290000000000000000000000000000000000000000292929
310
00002929000029292900000000000000000000000000000000000000002929290000292900002929290000000000000000000000000000000000000000292929000029290000292929000000000000000000000000000000000000000029292900002929000029292900000000000000000000000000000000000000002929
310
29000029290000292929000000000000000000000000000000000000000029292929292929292929292900000000000000000000000000000000000000002929292929292929292929290000000000000000000000000000000000000000292929000029290000292929000000000000000000000000000000000000000029
310
29290000292900002929290000000000000000000000000000000000000000292929000029290000292929000000000000000000000000000000000000000029292900002929000029292900000000000000000000000000000000000000002929290000292900002929290000000000000000000000000000000000000000
310
29292929292929292929292900000000000000000000000000000000000000002929290000292900002929290000000000000000000000000000000000000000292929000029290000292929000000000000000000000000000000000000000029292900002929000029292900000000000000000000000000000000000000
310
00292929000029290000292929000000000000000000000000000000000000000029292900002929000029292900000000000000000000000000000000000000002929292929292929292929290000000000000000000000000000000000000000292929292929292929292929000000000000000000000000000000000000
310
0000292929292929292929292929000000000000000000000000000000000000000000000000000000000000000000000000000000000000
102
{BLKREFS
331
2A036
102
}
1001
ACAD
1000
DesignCenter Data
1002
{
1070
     1
1070
     1
1002
}
  0
BLOCK_RECORD
  5
28E87
102
{ACAD_XDICTIONARY
360
28E92
102
}
330
1
100
AcDbSymbolTableRecord
100
AcDbBlockTableRecord
  2
ASPCHP3517T
340
0
102
{BLKREFS
331
2A037
102
}
1001
ACAD
1000
DesignCenter Data
1002
{
1070
     1
1070
     1
1002
}
  0
BLOCK_RECORD
  5
28E98
102
{ACAD_XDICTIONARY
360
28EA3
102
}
330
1
100
AcDbSymbolTableRecord
100
AcDbBlockTableRecord
  2
ASPCHP4117T
340
0
102
{BLKREFS
331
2A038
102
}
1001
ACAD
1000
DesignCenter Data
1002
{
1070
     1
1070
     1
1002
}
  0
BLOCK_RECORD
  5
28EA8
102
{ACAD_XDICTIONARY
360
28EB5
102
}
330
1
100
AcDbSymbolTableRecord
100
AcDbBlockTableRecord
  2
ASPCHP5317T
340
0
310
2800000020000000200000000100080000000000000400000000000000000000000000000000000000000000000080000080000000808000800000008000800080800000C0C0C000C0DCC000F0CAA6000020400000206000002080000020A0000020C0000020E00000400000004020000040400000406000004080000040A0
310
000040C0000040E00000600000006020000060400000606000006080000060A0000060C0000060E00000800000008020000080400000806000008080000080A0000080C0000080E00000A0000000A0200000A0400000A0600000A0800000A0A00000A0C00000A0E00000C0000000C0200000C0400000C0600000C0800000C0
310
A00000C0C00000C0E00000E0000000E0200000E0400000E0600000E0800000E0A00000E0C00000E0E00040000000400020004000400040006000400080004000A0004000C0004000E00040200000402020004020400040206000402080004020A0004020C0004020E000404000004040200040404000404060004040800040
310
40A0004040C0004040E00040600000406020004060400040606000406080004060A0004060C0004060E00040800000408020004080400040806000408080004080A0004080C0004080E00040A0000040A0200040A0400040A0600040A0800040A0A00040A0C00040A0E00040C0000040C0200040C0400040C0600040C08000
310
40C0A00040C0C00040C0E00040E0000040E0200040E0400040E0600040E0800040E0A00040E0C00040E0E00080000000800020008000400080006000800080008000A0008000C0008000E00080200000802020008020400080206000802080008020A0008020C0008020E00080400000804020008040400080406000804080
310
008040A0008040C0008040E00080600000806020008060400080606000806080008060A0008060C0008060E00080800000808020008080400080806000808080008080A0008080C0008080E00080A0000080A0200080A0400080A0600080A0800080A0A00080A0C00080A0E00080C0000080C0200080C0400080C0600080C0
310
800080C0A00080C0C00080C0E00080E0000080E0200080E0400080E0600080E0800080E0A00080E0C00080E0E000C0000000C0002000C0004000C0006000C0008000C000A000C000C000C000E000C0200000C0202000C0204000C0206000C0208000C020A000C020C000C020E000C0400000C0402000C0404000C0406000C0
310
408000C040A000C040C000C040E000C0600000C0602000C0604000C0606000C0608000C060A000C060C000C060E000C0800000C0802000C0804000C0806000C0808000C080A000C080C000C080E000C0A00000C0A02000C0A04000C0A06000C0A08000C0A0A000C0A0C000C0A0E000C0C00000C0C02000C0C04000C0C06000
310
C0C08000C0C0A000F0FBFF00A4A0A000808080000000FF0000FF000000FFFF00FF000000FF00FF00FFFF0000FFFFFF0000000000000000000000000000000000000000000000000000000000000000000000000000000000000000292929292929292929290000000000000000000000000000000000000000000029292929
310
292929292929000000000000000000000000000000000000000000002929000000F0000029290000000000000000000000000000000000000000000029292929292929292929000000000000000000000000000000000000000000002929290029290029292900000000000000000000000000000000000000000000292929
310
002929F029292900000000000000000000000000000000000000000000292929002929F029292900000000000000000000000000000000000000000000292929002929F02929290000000000000000000000000000000000000000000029292929292929292929000000000000000000000000000000000000000000002929
310
292929292929292900000000000000000000000000000000000000000000292929002929F029292900000000000000000000000000000000000000000000292929F02929F029292900000000000000000000000000000000000000000000292929F02929F02929290000000000000000000000000000000000000000000029
310
2929F02929F02929290000000000000000000000000000000000000000000029292929292929292929000000000000000000000000000000000000000000002929292929292929292900000000000000000000000000000000000000000000292929F029290029292900000000000000000000000000000000000000000000
310
292929F029290029292900000000000000000000000000000000000000000000292929F029290029292900000000000000000000000000000000000000000000292929F02929002929290000000000000000000000000000000000000000000029292929292929292929000000000000000000000000000000000000000000
310
00292929292929292929290000000000000000000000000000000000000000000029292900292900292929000000000000000000000000000000000000000000002929290029290029292900000000000000000000000000000000000000000000292929002929F02929290000000000000000000000000000000000000000
310
0000292929002929F029292900000000000000000000000000000000000000000000292929292929292929290000000000000000000000000000000000000000000029290000000000F02929000000000000000000000000000000000000000000002929292929292929292900000000000000000000000000000000000000
310
0000002929292929292929292900000000000000000000000000000000000000000000000000000000000000000000000000000000000000
102
{BLKREFS
331
28EB9
102
}
1001
ACAD
1000
DesignCenter Data
1002
{
1070
     1
1070
     1
1002
}
  0
BLOCK_RECORD
  5
28EE0
102
{ACAD_XDICTIONARY
360
28EEB
102
}
330
1
100
AcDbSymbolTableRecord
100
AcDbBlockTableRecord
  2
ASPCHP3521T
340
0
102
{BLKREFS
331
2A039
102
}
1001
ACAD
1000
DesignCenter Data
1002
{
1070
     1
1070
     1
1002
}
  0
BLOCK_RECORD
  5
28EF0
102
{ACAD_XDICTIONARY
360
28EFB
102
}
330
1
100
AcDbSymbolTableRecord
100
AcDbBlockTableRecord
  2
ASPCHP4121T
340
0
102
{BLKREFS
331
2A03A
102
}
1001
ACAD
1000
DesignCenter Data
1002
{
1070
     1
1070
     1
1002
}
  0
BLOCK_RECORD
  5
28F00
102
{ACAD_XDICTIONARY
360
28F0B
102
}
330
1
100
AcDbSymbolTableRecord
100
AcDbBlockTableRecord
  2
ASPCHP4721T
340
0
102
{BLKREFS
331
2A03B
102
}
1001
ACAD
1000
DesignCenter Data
1002
{
1070
     1
1070
     1
1002
}
  0
BLOCK_RECORD
  5
28F11
102
{ACAD_XDICTIONARY
360
28F1E
102
}
330
1
100
AcDbSymbolTableRecord
100
AcDbBlockTableRecord
  2
ASPCHP5321T
340
0
102
{BLKREFS
331
28F22
102
}
1001
ACAD
1000
DesignCenter Data
1002
{
1070
     1
1070
     1
1002
}
  0
BLOCK_RECORD
  5
28F49
102
{ACAD_XDICTIONARY
360
28F54
102
}
330
1
100
AcDbSymbolTableRecord
100
AcDbBlockTableRecord
  2
ASPCHP3523T
340
0
102
{BLKREFS
331
2A03C
102
}
1001
ACAD
1000
DesignCenter Data
1002
{
1070
     1
1070
     1
1002
}
  0
BLOCK_RECORD
  5
28F59
102
{ACAD_XDICTIONARY
360
28F64
102
}
330
1
100
AcDbSymbolTableRecord
100
AcDbBlockTableRecord
  2
ASPCHP4123T
340
0
102
{BLKREFS
331
2A03D
102
}
1001
ACAD
1000
DesignCenter Data
1002
{
1070
     1
1070
     1
1002
}
  0
BLOCK_RECORD
  5
28F69
102
{ACAD_XDICTIONARY
360
28F76
102
}
330
1
100
AcDbSymbolTableRecord
100
AcDbBlockTableRecord
  2
ASPCHP5323T
340
0
102
{BLKREFS
331
28F7A
102
}
1001
ACAD
1000
DesignCenter Data
1002
{
1070
     1
1070
     1
1002
}
  0
BLOCK_RECORD
  5
28F7B
102
{ACAD_XDICTIONARY
360
28F86
102
}
330
1
100
AcDbSymbolTableRecord
100
AcDbBlockTableRecord
  2
ASPCHP4723T
340
0
102
{BLKREFS
331
2A03E
102
}
1001
ACAD
1000
DesignCenter Data
1002
{
1070
     1
1070
     1
1002
}
  0
BLOCK_RECORD
  5
28FB1
102
{ACAD_XDICTIONARY
360
28FBC
102
}
330
1
100
AcDbSymbolTableRecord
100
AcDbBlockTableRecord
  2
ASPCHP3525T
340
0
102
{BLKREFS
331
2A03F
102
}
1001
ACAD
1000
DesignCenter Data
1002
{
1070
     1
1070
     1
1002
}
  0
BLOCK_RECORD
  5
28FC1
102
{ACAD_XDICTIONARY
360
28FCC
102
}
330
1
100
AcDbSymbolTableRecord
100
AcDbBlockTableRecord
  2
ASPCHP4125T
340
0
102
{BLKREFS
331
2A040
102
}
1001
ACAD
1000
DesignCenter Data
1002
{
1070
     1
1070
     1
1002
}
  0
BLOCK_RECORD
  5
28FD1
102
{ACAD_XDICTIONARY
360
28FDC
102
}
330
1
100
AcDbSymbolTableRecord
100
AcDbBlockTableRecord
  2
ASPCHP4725T
340
0
102
{BLKREFS
331
2A041
102
}
1001
ACAD
1000
DesignCenter Data
1002
{
1070
     1
1070
     1
1002
}
  0
BLOCK_RECORD
  5
28FE1
102
{ACAD_XDICTIONARY
360
28FEE
102
}
330
1
100
AcDbSymbolTableRecord
100
AcDbBlockTableRecord
  2
ASPCHP5325T
340
0
102
{BLKREFS
331
28FF2
102
}
1001
ACAD
1000
DesignCenter Data
1002
{
1070
     1
1070
     1
1002
}
  0
BLOCK_RECORD
  5
2915A
102
{ACAD_XDICTIONARY
360
2916B
102
}
330
1
100
AcDbSymbolTableRecord
100
AcDbBlockTableRecord
  2
ASPCHP5329T
340
0
102
{BLKREFS
331
2916F
102
}
1001
ACAD
1000
DesignCenter Data
1002
{
1070
     1
1070
     1
1002
}
  0
BLOCK_RECORD
  5
29186
102
{ACAD_XDICTIONARY
360
29194
102
}
330
1
100
AcDbSymbolTableRecord
100
AcDbBlockTableRecord
  2
ASPCHP4729T
340
0
102
{BLKREFS
331
2A042
102
}
1001
ACAD
1000
DesignCenter Data
1002
{
1070
     1
1070
     1
1002
}
  0
BLOCK_RECORD
  5
291AF
102
{ACAD_XDICTIONARY
360
291BD
102
}
330
1
100
AcDbSymbolTableRecord
100
AcDbBlockTableRecord
  2
ASPCHP4129T
340
0
102
{BLKREFS
331
2A043
102
}
1001
ACAD
1000
DesignCenter Data
1002
{
1070
     1
1070
     1
1002
}
  0
BLOCK_RECORD
  5
291D8
102
{ACAD_XDICTIONARY
360
291E6
102
}
330
1
100
AcDbSymbolTableRecord
100
AcDbBlockTableRecord
  2
ASPCHP3529T
340
0
102
{BLKREFS
331
2A044
102
}
1001
ACAD
1000
DesignCenter Data
1002
{
1070
     1
1070
     1
1002
}
  0
BLOCK_RECORD
  5
2A2F8
330
1
100
AcDbSymbolTableRecord
100
AcDbBlockTableRecord
  2
ASPCHP2121T
340
0
310
2800000020000000200000000100080000000000000400000000000000000000000000000000000000000000000080000080000000808000800000008000800080800000C0C0C000C0DCC000F0CAA6000020400000206000002080000020A0000020C0000020E00000400000004020000040400000406000004080000040A0
310
000040C0000040E00000600000006020000060400000606000006080000060A0000060C0000060E00000800000008020000080400000806000008080000080A0000080C0000080E00000A0000000A0200000A0400000A0600000A0800000A0A00000A0C00000A0E00000C0000000C0200000C0400000C0600000C0800000C0
310
A00000C0C00000C0E00000E0000000E0200000E0400000E0600000E0800000E0A00000E0C00000E0E00040000000400020004000400040006000400080004000A0004000C0004000E00040200000402020004020400040206000402080004020A0004020C0004020E000404000004040200040404000404060004040800040
310
40A0004040C0004040E00040600000406020004060400040606000406080004060A0004060C0004060E00040800000408020004080400040806000408080004080A0004080C0004080E00040A0000040A0200040A0400040A0600040A0800040A0A00040A0C00040A0E00040C0000040C0200040C0400040C0600040C08000
310
40C0A00040C0C00040C0E00040E0000040E0200040E0400040E0600040E0800040E0A00040E0C00040E0E00080000000800020008000400080006000800080008000A0008000C0008000E00080200000802020008020400080206000802080008020A0008020C0008020E00080400000804020008040400080406000804080
310
008040A0008040C0008040E00080600000806020008060400080606000806080008060A0008060C0008060E00080800000808020008080400080806000808080008080A0008080C0008080E00080A0000080A0200080A0400080A0600080A0800080A0A00080A0C00080A0E00080C0000080C0200080C0400080C0600080C0
310
800080C0A00080C0C00080C0E00080E0000080E0200080E0400080E0600080E0800080E0A00080E0C00080E0E000C0000000C0002000C0004000C0006000C0008000C000A000C000C000C000E000C0200000C0202000C0204000C0206000C0208000C020A000C020C000C020E000C0400000C0402000C0404000C0406000C0
310
408000C040A000C040C000C040E000C0600000C0602000C0604000C0606000C0608000C060A000C060C000C060E000C0800000C0802000C0804000C0806000C0808000C080A000C080C000C080E000C0A00000C0A02000C0A04000C0A06000C0A08000C0A0A000C0A0C000C0A0E000C0C00000C0C02000C0C04000C0C06000
310
C0C08000C0C0A000F0FBFF00A4A0A000808080000000FF0000FF000000FFFF00FF000000FF00FF00FFFF0000FFFFFF0000000000000000000000000000000000000000000000000000000000000000000029292929292929292929292929292929292929292929292929292929292900002900000000000000000000000000
310
000000000000000000000000000000290000290029292929292929292929292929F0292929292929292929292929002900002900290000000000000000000000F0F0000000000000000000000029002900002900290000000000000000000000F000F000000000000000000000290029000029002900000000000000000000
310
F00000F000000000000000000000290029000029002900000000000000000000F0000000F0000000000000000000290029000029002900000000FAFAFAFAFAF0FAFAFAFAF0FAFAFAFAFA00000000290029000029002900000000FA00000000F00029290000F0000000FA00000000290029000029002900000000FA000000F0
310
000029290000F0000000FA00000000290029000029002900000000FA000000F000002929000000F00000FA00000000290029000029002900000000FA0000F00000002929000000F00000FA00000000290029000029002900000000FA0000F0000000292900000000F000FA00000000290029000029002900000000FA00F000
310
000000292900000000F000FA00000000290029000029002900000000FA29F02929292929292929292929F0FA00000000290029000029002900000000FAF0292929292929292929292929F0FA00000000290029000029002900000000FAF000000000002929000000000000F000000000290029000029002900000000F00000
310
000000002929000000000000F000000000290029000029002900000000F00000000000002929000000000000FAF00000002900290000290029000000F0FA0000000000002929000000000000FAF00000002900290000290029000000F0FA0000000000002929000000000000FA00F0000029002900002900290000F000FA00
310
00000000002929000000000000FA00F0000029002900002900290000F000FAFAFAFAFAFAFAFAFAFAFAFAFAFAFAFA0000F000290029000029002900F00000000000000000000000000000000000000000F000290029000029002900F0000000000000000000000000000000000000000000F02900290000290029F000000000
310
000000000000000000000000000000000000F02900290000290029F00000000000000000000000000000000000000000000000F0002900002900F0292929292929292929292929292929292929292929292929F000290000290000000000000000000000000000000000000000000000000000000029000029292929292929
310
2929292929292929292929292929292929292929292929000000000000000000000000000000000000000000000000000000000000000000
102
{BLKREFS
331
2A303
102
}
1001
ACAD
1000
DesignCenter Data
1002
{
1070
     1
1070
     1
1002
}
  0
BLOCK_RECORD
  5
2A3C8
330
1
100
AcDbSymbolTableRecord
100
AcDbBlockTableRecord
  2
ASPCHP2323T
340
0
310
2800000020000000200000000100080000000000000400000000000000000000000000000000000000000000000080000080000000808000800000008000800080800000C0C0C000C0DCC000F0CAA6000020400000206000002080000020A0000020C0000020E00000400000004020000040400000406000004080000040A0
310
000040C0000040E00000600000006020000060400000606000006080000060A0000060C0000060E00000800000008020000080400000806000008080000080A0000080C0000080E00000A0000000A0200000A0400000A0600000A0800000A0A00000A0C00000A0E00000C0000000C0200000C0400000C0600000C0800000C0
310
A00000C0C00000C0E00000E0000000E0200000E0400000E0600000E0800000E0A00000E0C00000E0E00040000000400020004000400040006000400080004000A0004000C0004000E00040200000402020004020400040206000402080004020A0004020C0004020E000404000004040200040404000404060004040800040
310
40A0004040C0004040E00040600000406020004060400040606000406080004060A0004060C0004060E00040800000408020004080400040806000408080004080A0004080C0004080E00040A0000040A0200040A0400040A0600040A0800040A0A00040A0C00040A0E00040C0000040C0200040C0400040C0600040C08000
310
40C0A00040C0C00040C0E00040E0000040E0200040E0400040E0600040E0800040E0A00040E0C00040E0E00080000000800020008000400080006000800080008000A0008000C0008000E00080200000802020008020400080206000802080008020A0008020C0008020E00080400000804020008040400080406000804080
310
008040A0008040C0008040E00080600000806020008060400080606000806080008060A0008060C0008060E00080800000808020008080400080806000808080008080A0008080C0008080E00080A0000080A0200080A0400080A0600080A0800080A0A00080A0C00080A0E00080C0000080C0200080C0400080C0600080C0
310
800080C0A00080C0C00080C0E00080E0000080E0200080E0400080E0600080E0800080E0A00080E0C00080E0E000C0000000C0002000C0004000C0006000C0008000C000A000C000C000C000E000C0200000C0202000C0204000C0206000C0208000C020A000C020C000C020E000C0400000C0402000C0404000C0406000C0
310
408000C040A000C040C000C040E000C0600000C0602000C0604000C0606000C0608000C060A000C060C000C060E000C0800000C0802000C0804000C0806000C0808000C080A000C080C000C080E000C0A00000C0A02000C0A04000C0A06000C0A08000C0A0A000C0A0C000C0A0E000C0C00000C0C02000C0C04000C0C06000
310
C0C08000C0C0A000F0FBFF00A4A0A000808080000000FF0000FF000000FFFF00FF000000FF00FF00FFFF0000FFFFFF0000000000000000000000000000000000000000000000000000000000000000000029292929292929292929292929292929292929292929292929292929292900002900000000000000000000000000
310
000000000000000000000000000000290000290029292929292929292929292929F0292929292929292929292929002900002900290000000000000000000000F0F0000000000000000000000029002900002900290000000000000000000000F000F000000000000000000000290029000029002900000000000000000000
310
F00000F0000000000000000000002900290000290029000000FAFAFAFAFAFAFAF0FAFAFAF0FAFAFAFAFAFA0000002900290000290029000000FA0000000000F000292900F00000000000FA0000002900290000290029000000FA0000000000F00029290000F000000000FA0000002900290000290029000000FA00000000F0
310
000029290000F000000000FA0000002900290000290029000000FA00000000F000002929000000F0000000FA0000002900290000290029000000FA000000F00000002929000000F0000000FA0000002900290000290029000000FA000000F0000000292900000000F00000FA0000002900290000290029000000FA0000F000
310
000000292900000000F00000FA0000002900290000290029000000FA2929F02929292929292929292929F029FA0000002900290000290029000000FA29F0292929292929292929292929F029FA0000002900290000290029000000FA00F000000000002929000000000000F0FA0000002900290000290029000000FAF00000
310
000000002929000000000000F0FA0000002900290000290029000000FAF0000000000000292900000000000000F00000002900290000290029000000F000000000000000292900000000000000F00000002900290000290029000000F000000000000000292900000000000000FAF0000029002900002900290000F0FA0000
310
0000000000292900000000000000FAF0000029002900002900290000F0FA00000000000000292900000000000000FA00F000290029000029002900F000FAFAFAFAFAFAFAFAFAFAFAFAFAFAFAFAFAFA00F000290029000029002900F0000000000000000000000000000000000000000000F02900290000290029F000000000
310
000000000000000000000000000000000000F02900290000290029F00000000000000000000000000000000000000000000000F0002900002900F0292929292929292929292929292929292929292929292929F000290000290000000000000000000000000000000000000000000000000000000029000029292929292929
310
2929292929292929292929292929292929292929292929000000000000000000000000000000000000000000000000000000000000000000
102
{BLKREFS
331
2A3D3
102
}
1001
ACAD
1000
DesignCenter Data
1002
{
1070
     1
1070
     1
1002
}
  0
BLOCK_RECORD
  5
2A3E1
330
1
100
AcDbSymbolTableRecord
100
AcDbBlockTableRecord
  2
ASPCHP2929T
340
0
310
2800000020000000200000000100080000000000000400000000000000000000000000000000000000000000000080000080000000808000800000008000800080800000C0C0C000C0DCC000F0CAA6000020400000206000002080000020A0000020C0000020E00000400000004020000040400000406000004080000040A0
310
000040C0000040E00000600000006020000060400000606000006080000060A0000060C0000060E00000800000008020000080400000806000008080000080A0000080C0000080E00000A0000000A0200000A0400000A0600000A0800000A0A00000A0C00000A0E00000C0000000C0200000C0400000C0600000C0800000C0
310
A00000C0C00000C0E00000E0000000E0200000E0400000E0600000E0800000E0A00000E0C00000E0E00040000000400020004000400040006000400080004000A0004000C0004000E00040200000402020004020400040206000402080004020A0004020C0004020E000404000004040200040404000404060004040800040
310
40A0004040C0004040E00040600000406020004060400040606000406080004060A0004060C0004060E00040800000408020004080400040806000408080004080A0004080C0004080E00040A0000040A0200040A0400040A0600040A0800040A0A00040A0C00040A0E00040C0000040C0200040C0400040C0600040C08000
310
40C0A00040C0C00040C0E00040E0000040E0200040E0400040E0600040E0800040E0A00040E0C00040E0E00080000000800020008000400080006000800080008000A0008000C0008000E00080200000802020008020400080206000802080008020A0008020C0008020E00080400000804020008040400080406000804080
310
008040A0008040C0008040E00080600000806020008060400080606000806080008060A0008060C0008060E00080800000808020008080400080806000808080008080A0008080C0008080E00080A0000080A0200080A0400080A0600080A0800080A0A00080A0C00080A0E00080C0000080C0200080C0400080C0600080C0
310
800080C0A00080C0C00080C0E00080E0000080E0200080E0400080E0600080E0800080E0A00080E0C00080E0E000C0000000C0002000C0004000C0006000C0008000C000A000C000C000C000E000C0200000C0202000C0204000C0206000C0208000C020A000C020C000C020E000C0400000C0402000C0404000C0406000C0
310
408000C040A000C040C000C040E000C0600000C0602000C0604000C0606000C0608000C060A000C060C000C060E000C0800000C0802000C0804000C0806000C0808000C080A000C080C000C080E000C0A00000C0A02000C0A04000C0A06000C0A08000C0A0A000C0A0C000C0A0E000C0C00000C0C02000C0C04000C0C06000
310
C0C08000C0C0A000F0FBFF00A4A0A000808080000000FF0000FF000000FFFF00FF000000FF00FF00FFFF0000FFFFFF0000000000000000000000000000000000000000000000000000000000000000000029292929292929292929292929292929292929292929292929292929292900002929292929292929292929292929
310
29F0292929292929292929292929292900002929000000000000000000000000F0F0000000000000000000000000292900002929000000000000000000000000F000F000000000000000000000002929000029290000000000000000000000F00000F00000000000000000000000292900002929000000FAFAFAFAFAFAFAFA
310
F0FAFAFAF0FAFAFAFAFAFAFA000000292900002929000000FA000000000000F000292900F0000000000000FA000000292900002929000000FA000000000000F00029290000F00000000000FA000000292900002929000000FA0000000000F0000029290000F00000000000FA000000292900002929000000FA0000000000F0
310
00002929000000F000000000FA000000292900002929000000FA00000000F00000002929000000F000000000FA000000292900002929000000FA00000000F0000000292900000000F0000000FA000000292900002929000000FA000000F000000000292900000000F0000000FA000000292900002929000000FA000000F000
310
00000029290000000000F00000FA000000292900002929000000FA2929F0292929292929292929292929F02929FA000000292900002929000000FA2929F029292929292929292929292929F029FA000000292900002929000000FA00F00000000000002929000000000000F000FA000000292900002929000000FA00F00000
310
00000000292900000000000000F0FA000000292900002929000000FAF000000000000000292900000000000000F0FA000000292900002929000000FAF00000000000000029290000000000000000F0000000292900002929000000F0000000000000000029290000000000000000F0000000292900002929000000F0000000
310
000000000029290000000000000000FAF000002929000029290000F0FA000000000000000029290000000000000000FAF000002929000029290000F0FA000000000000000029290000000000000000FA00F00029290000292900F000FAFAFAFAFAFAFAFAFAFAFAFAFAFAFAFAFAFAFAFA00F00029290000292900F000000000
310
00000000000000000000000000000000000000F0292900002929F0000000000000000000000000000000000000000000000000F0292900002929F000000000000000000000000000000000000000000000000000F029000029F02929292929292929292929292929292929292929292929292929F029000029292929292929
310
2929292929292929292929292929292929292929292929000000000000000000000000000000000000000000000000000000000000000000
102
{BLKREFS
331
2A3EC
102
}
1001
ACAD
1000
DesignCenter Data
1002
{
1070
     1
1070
     1
1002
}
  0
BLOCK_RECORD
  5
2A3ED
330
1
100
AcDbSymbolTableRecord
100
AcDbBlockTableRecord
  2
ASPCHP2525T
340
0
310
2800000020000000200000000100080000000000000400000000000000000000000000000000000000000000000080000080000000808000800000008000800080800000C0C0C000C0DCC000F0CAA6000020400000206000002080000020A0000020C0000020E00000400000004020000040400000406000004080000040A0
310
000040C0000040E00000600000006020000060400000606000006080000060A0000060C0000060E00000800000008020000080400000806000008080000080A0000080C0000080E00000A0000000A0200000A0400000A0600000A0800000A0A00000A0C00000A0E00000C0000000C0200000C0400000C0600000C0800000C0
310
A00000C0C00000C0E00000E0000000E0200000E0400000E0600000E0800000E0A00000E0C00000E0E00040000000400020004000400040006000400080004000A0004000C0004000E00040200000402020004020400040206000402080004020A0004020C0004020E000404000004040200040404000404060004040800040
310
40A0004040C0004040E00040600000406020004060400040606000406080004060A0004060C0004060E00040800000408020004080400040806000408080004080A0004080C0004080E00040A0000040A0200040A0400040A0600040A0800040A0A00040A0C00040A0E00040C0000040C0200040C0400040C0600040C08000
310
40C0A00040C0C00040C0E00040E0000040E0200040E0400040E0600040E0800040E0A00040E0C00040E0E00080000000800020008000400080006000800080008000A0008000C0008000E00080200000802020008020400080206000802080008020A0008020C0008020E00080400000804020008040400080406000804080
310
008040A0008040C0008040E00080600000806020008060400080606000806080008060A0008060C0008060E00080800000808020008080400080806000808080008080A0008080C0008080E00080A0000080A0200080A0400080A0600080A0800080A0A00080A0C00080A0E00080C0000080C0200080C0400080C0600080C0
310
800080C0A00080C0C00080C0E00080E0000080E0200080E0400080E0600080E0800080E0A00080E0C00080E0E000C0000000C0002000C0004000C0006000C0008000C000A000C000C000C000E000C0200000C0202000C0204000C0206000C0208000C020A000C020C000C020E000C0400000C0402000C0404000C0406000C0
310
408000C040A000C040C000C040E000C0600000C0602000C0604000C0606000C0608000C060A000C060C000C060E000C0800000C0802000C0804000C0806000C0808000C080A000C080C000C080E000C0A00000C0A02000C0A04000C0A06000C0A08000C0A0A000C0A0C000C0A0E000C0C00000C0C02000C0C04000C0C06000
310
C0C08000C0C0A000F0FBFF00A4A0A000808080000000FF0000FF000000FFFF00FF000000FF00FF00FFFF0000FFFFFF0000000000000000000000000000000000000000000000000000000000000000000029292929292929292929292929292929292929292929292929292929292900002900000000000000000000000000
310
0000000000000000000000000000002900002900292929292929292929292929F029292929292929292929292929002900002900290000000000000000000000F0F00000000000000000000000290029000029002900000000000000000000F000F00000000000000000000000290029000029002900000000000000000000
310
F00000F0000000000000000000002900290000290029000000FAFAFAFAFAFAF0FAFAFAF0FAFAFAFAFAFAFA0000002900290000290029000000FA0000000000F000292900F00000000000FA0000002900290000290029000000FA00000000F00000292900F00000000000FA0000002900290000290029000000FA00000000F0
310
000029290000F000000000FA0000002900290000290029000000FA000000F000000029290000F000000000FA0000002900290000290029000000FA000000F00000002929000000F0000000FA0000002900290000290029000000FA0000F0000000002929000000F0000000FA0000002900290000290029000000FA0000F000
310
000000292900000000F00000FA0000002900290000290029000000FA29F02929292929292929292929F02929FA0000002900290000290029000000FA29F0292929292929292929292929F029FA0000002900290000290029000000FAF000000000000029290000000000F000FA0000002900290000290029000000FAF00000
310
000000002929000000000000F0FA0000002900290000290029000000F0000000000000002929000000000000F0FA0000002900290000290029000000F000000000000000292900000000000000F000000029002900002900290000F0FA00000000000000292900000000000000F000000029002900002900290000F0FA0000
310
0000000000292900000000000000FAF00000290029000029002900F000FA00000000000000292900000000000000FAF00000290029000029002900F000FAFAFAFAFAFAFAFAFAFAFAFAFAFAFAFAFAFA00F0002900290000290029F0000000000000000000000000000000000000000000F0002900290000290029F000000000
310
000000000000000000000000000000000000F029002900002900F00000000000000000000000000000000000000000000000F029002900002900F0292929292929292929292929292929292929292929292929F000290000290000000000000000000000000000000000000000000000000000000029000029292929292929
310
2929292929292929292929292929292929292929292929000000000000000000000000000000000000000000000000000000000000000000
102
{BLKREFS
331
2A3F8
102
}
1001
ACAD
1000
DesignCenter Data
1002
{
1070
     1
1070
     1
1002
}
  0
ENDTAB
  0
ENDSEC
  0
SECTION
  2
BLOCKS
  0
BLOCK
  5
20
330
1F
100
AcDbEntity
  8
0
100
AcDbBlockBegin
  2
*Model_Space
 70
     0
 10
0.0
 20
0.0
 30
0.0
  3
*Model_Space
  1

  0
ENDBLK
  5
21
330
1F
100
AcDbEntity
  8
0
100
AcDbBlockEnd
  0
BLOCK
  5
1355B
330
13559
100
AcDbEntity
 67
     1
  8
0
100
AcDbBlockBegin
  2
*Paper_Space
 70
     0
 10
0.0
 20
0.0
 30
0.0
  3
*Paper_Space
  1

  0
ENDBLK
  5
1355C
330
13559
100
AcDbEntity
 67
     1
  8
0
100
AcDbBlockEnd
  0
BLOCK
  5
149C4
330
149C3
100
AcDbEntity
  8
0
100
AcDbBlockBegin
  2
341
 70
     0
 10
0.0
 20
0.0
 30
0.0
  3
341
  1

  0
TEXT
  5
2AB12
330
149C3
100
AcDbEntity
  8
Pel_TXT
100
AcDbText
 10
0.1280999999999994
 20
-0.0249999999999995
 30
0.0
 40
0.05
  1
/
100
AcDbText
  0
TEXT
  5
2AB13
330
149C3
100
AcDbEntity
  8
Pel_TXT
100
AcDbText
 10
0.0880999999999991
 20
-0.0124999999999996
 30
0.0
 40
0.05
  1
3
100
AcDbText
  0
TEXT
  5
2AB14
330
149C3
100
AcDbEntity
  8
Pel_TXT
100
AcDbText
 10
0.1880999999999993
 20
-0.0312499999999997
 30
0.0
 40
0.07
  1
"
100
AcDbText
  0
TEXT
  5
2AB15
330
149C3
100
AcDbEntity
  8
Pel_TXT
100
AcDbText
 10
0.1530999999999991
 20
-0.0375
 30
0.0
 40
0.05
  1
4
100
AcDbText
  0
POINT
  5
2AB16
330
149C3
100
AcDbEntity
  8
Pel_Points
100
AcDbPoint
 10
-0.0000000000000005
 20
0.0000000000000002
 30
0.0
 50
360.0
  0
ENDBLK
  5
149C9
330
149C3
100
AcDbEntity
  8
0
100
AcDbBlockEnd
  0
BLOCK
  5
1571E
330
1571D
100
AcDbEntity
  8
0
100
AcDbBlockBegin
  2
342
 70
     0
 10
0.0
 20
0.0
 30
0.0
  3
342
  1

  0
TEXT
  5
2AB17
330
1571D
100
AcDbEntity
  8
Pel_TXT
100
AcDbText
 10
0.1075
 20
-0.0125
 30
0.0
 40
0.05
  1
3
100
AcDbText
  0
TEXT
  5
2AB18
330
1571D
100
AcDbEntity
  8
Pel_TXT
100
AcDbText
 10
0.1526362781298042
 20
-0.025
 30
0.0
 40
0.05
  1
/
100
AcDbText
  0
TEXT
  5
2AB19
330
1571D
100
AcDbEntity
  8
Pel_TXT
100
AcDbText
 10
0.1825000000000001
 20
-0.0375
 30
0.0
 40
0.05
  1
4
100
AcDbText
  0
TEXT
  5
2AB1A
330
1571D
100
AcDbEntity
  8
Pel_TXT
100
AcDbText
 10
0.2175000000000001
 20
-0.03125
 30
0.0
 40
0.07
  1
"
100
AcDbText
  0
POINT
  5
2AB1B
330
1571D
100
AcDbEntity
  8
Pel_Points
100
AcDbPoint
 10
0.0
 20
0.0
 30
0.0
  0
ENDBLK
  5
15723
330
1571D
100
AcDbEntity
  8
0
100
AcDbBlockEnd
  0
BLOCK
  5
263E8
330
263E7
100
AcDbEntity
  8
0
100
AcDbBlockBegin
  2
ASPCHP4717T
 70
     0
 10
0.0
 20
0.0
 30
0.0
  3
ASPCHP4717T
  1

  0
POLYLINE
  5
263EA
330
263E7
100
AcDbEntity
  8
Pel_Frame_Outside
100
AcDb2dPolyline
 66
     1
 10
0.0
 20
0.0
 30
0.0
 70
     1
  0
VERTEX
  5
2AA7F
330
263EA
100
AcDbEntity
  8
Pel_Frame_Outside
100
AcDbVertex
100
AcDb2dVertex
 10
-0.0000000000000568
 20
0.0
 30
0.0
  0
VERTEX
  5
2AA80
330
263EA
100
AcDbEntity
  8
Pel_Frame_Outside
100
AcDbVertex
100
AcDb2dVertex
 10
-0.0000000000000568
 20
17.0
 30
0.0
  0
VERTEX
  5
2AA81
330
263EA
100
AcDbEntity
  8
Pel_Frame_Outside
100
AcDbVertex
100
AcDb2dVertex
 10
46.99999999999988
 20
17.0
 30
0.0
  0
VERTEX
  5
2AA82
330
263EA
100
AcDbEntity
  8
Pel_Frame_Outside
100
AcDbVertex
100
AcDb2dVertex
 10
46.99999999999988
 20
0.0
 30
0.0
  0
SEQEND
  5
2AA83
330
263EA
100
AcDbEntity
  8
Pel_Frame_Outside
  0
POLYLINE
  5
263F0
330
263E7
100
AcDbEntity
  8
Pel_Sash_Outside
100
AcDb2dPolyline
 66
     1
 10
0.0
 20
0.0
 30
0.0
 70
     1
  0
VERTEX
  5
2AA85
330
263F0
100
AcDbEntity
  8
Pel_Sash_Outside
100
AcDbVertex
100
AcDb2dVertex
 10
1.0
 20
1.0
 30
0.0
  0
VERTEX
  5
2AA86
330
263F0
100
AcDbEntity
  8
Pel_Sash_Outside
100
AcDbVertex
100
AcDb2dVertex
 10
1.0
 20
16.0
 30
0.0
  0
VERTEX
  5
2AA87
330
263F0
100
AcDbEntity
  8
Pel_Sash_Outside
100
AcDbVertex
100
AcDb2dVertex
 10
46.0
 20
16.0
 30
0.0
  0
VERTEX
  5
2AA88
330
263F0
100
AcDbEntity
  8
Pel_Sash_Outside
100
AcDbVertex
100
AcDb2dVertex
 10
46.0
 20
1.0
 30
0.0
  0
SEQEND
  5
2AA89
330
263F0
100
AcDbEntity
  8
Pel_Sash_Outside
  0
LWPOLYLINE
  5
29703
330
263E7
100
AcDbEntity
  8
Pel_Sash_Inside
100
AcDbPolyline
 90
        4
 70
     1
 43
0.0
 10
42.37499999999989
 20
12.375
 10
4.624999999999943
 20
12.375
 10
4.624999999999943
 20
4.625
 10
42.37499999999989
 20
4.625
  0
LWPOLYLINE
  5
29705
330
263E7
100
AcDbEntity
  8
Pel_Muntin_AS
100
AcDbPolyline
 90
        4
 70
     1
 43
0.0
 10
13.40549999999996
 20
12.375
 10
13.40549999999996
 20
4.625
 10
4.624999999999943
 20
4.625
 10
4.624999999999943
 20
12.375
  0
LWPOLYLINE
  5
29706
330
263E7
100
AcDbEntity
  8
Pel_Muntin_AS
100
AcDbPolyline
 90
        4
 70
     1
 43
0.0
 10
23.06199999999996
 20
12.375
 10
23.06199999999996
 20
4.625
 10
14.28150000000005
 20
4.625
 10
14.28150000000005
 20
12.375
  0
LWPOLYLINE
  5
29709
330
263E7
100
AcDbEntity
  8
Pel_Muntin_AS
100
AcDbPolyline
 90
        4
 70
     1
 43
0.0
 10
42.37499999999989
 20
12.375
 10
42.37499999999989
 20
4.625
 10
33.59449999999993
 20
4.625
 10
33.59449999999993
 20
12.375
  0
LWPOLYLINE
  5
2AA8E
330
263E7
100
AcDbEntity
  8
Pel_Muntin_AS
100
AcDbPolyline
 90
        4
 70
     1
 43
0.0
 10
32.71849999999995
 20
12.375
 10
32.71849999999995
 20
4.625
 10
23.93800000000005
 20
4.625
 10
23.93800000000005
 20
12.375
  0
LWPOLYLINE
  5
2AA8F
330
263E7
100
AcDbEntity
  8
Pel_Hinging
 48
6.0
100
AcDbPolyline
 90
        3
 70
     0
 43
0.0
 10
1.0
 20
16.0
 10
23.5
 20
1.0
 10
46.0
 20
16.0
  0
ENDBLK
  5
263E9
330
263E7
100
AcDbEntity
  8
0
100
AcDbBlockEnd
  0
BLOCK
  5
28E94
330
28E87
100
AcDbEntity
  8
0
100
AcDbBlockBegin
  2
ASPCHP3517T
 70
     0
 10
0.0
 20
0.0
 30
0.0
  3
ASPCHP3517T
  1

  0
LWPOLYLINE
  5
28E88
330
28E87
100
AcDbEntity
  8
Pel_Frame_Outside
100
AcDbPolyline
 90
        4
 70
     1
 43
0.0
 10
0.0000000000000568
 20
0.0
 10
0.0000000000000568
 20
17.0
 10
35.00000000000006
 20
17.0
 10
35.00000000000006
 20
0.0
  0
LWPOLYLINE
  5
28E89
330
28E87
100
AcDbEntity
  8
Pel_Sash_Outside
100
AcDbPolyline
 90
        4
 70
     1
 43
0.0
 10
34.0
 20
1.0
 10
34.0
 20
16.0
 10
1.0
 20
16.0
 10
1.0
 20
1.0
  0
LWPOLYLINE
  5
28E8A
330
28E87
100
AcDbEntity
  8
Pel_Sash_Inside
100
AcDbPolyline
 90
        4
 70
     1
 43
0.0
 10
30.37500000000006
 20
12.375
 10
4.625000000000056
 20
12.375
 10
4.625000000000056
 20
4.625
 10
30.37500000000006
 20
4.625
  0
LWPOLYLINE
  5
28E8D
330
28E87
100
AcDbEntity
  8
Pel_Muntin_AS
100
AcDbPolyline
 90
        4
 70
     1
 43
0.0
 10
12.62433000000004
 20
12.375
 10
12.62433000000004
 20
4.625
 10
4.625000000000056
 20
4.625
 10
4.625000000000056
 20
12.375
  0
LWPOLYLINE
  5
28E8E
330
28E87
100
AcDbEntity
  8
Pel_Muntin_AS
100
AcDbPolyline
 90
        4
 70
     1
 43
0.0
 10
21.49967000000009
 20
12.375
 10
21.49967000000009
 20
4.625
 10
13.50033000000002
 20
4.625
 10
13.50033000000002
 20
12.375
  0
LWPOLYLINE
  5
28E91
330
28E87
100
AcDbEntity
  8
Pel_Muntin_AS
100
AcDbPolyline
 90
        4
 70
     1
 43
0.0
 10
30.37500000000006
 20
12.375
 10
30.37500000000006
 20
4.625
 10
22.37567000000007
 20
4.625
 10
22.37567000000007
 20
12.375
  0
LWPOLYLINE
  5
2AB02
330
28E87
100
AcDbEntity
  8
Pel_Hinging
 48
6.0
100
AcDbPolyline
 90
        3
 70
     0
 43
0.0
 10
1.0
 20
16.0
 10
17.5
 20
1.0
 10
34.0
 20
16.0
  0
ENDBLK
  5
28E95
330
28E87
100
AcDbEntity
  8
0
100
AcDbBlockEnd
  0
BLOCK
  5
28EA5
330
28E98
100
AcDbEntity
  8
0
100
AcDbBlockBegin
  2
ASPCHP4117T
 70
     0
 10
0.0
 20
0.0
 30
0.0
  3
ASPCHP4117T
  1

  0
LWPOLYLINE
  5
28E99
330
28E98
100
AcDbEntity
  8
Pel_Frame_Outside
100
AcDbPolyline
 90
        4
 70
     1
 43
0.0
 10
0.0000000000000568
 20
0.0
 10
0.0000000000000568
 20
17.0
 10
41.00000000000005
 20
17.0
 10
41.00000000000005
 20
0.0
  0
LWPOLYLINE
  5
28E9A
330
28E98
100
AcDbEntity
  8
Pel_Sash_Outside
100
AcDbPolyline
 90
        4
 70
     1
 43
0.0
 10
39.99999999999995
 20
1.0
 10
40.0
 20
16.0
 10
1.0
 20
16.0
 10
0.9999999999999431
 20
1.0
  0
LWPOLYLINE
  5
28E9B
330
28E98
100
AcDbEntity
  8
Pel_Sash_Inside
100
AcDbPolyline
 90
        4
 70
     1
 43
0.0
 10
36.37500000000006
 20
12.375
 10
4.625000000000056
 20
12.375
 10
4.625000000000056
 20
4.625
 10
36.37500000000006
 20
4.625
  0
LWPOLYLINE
  5
28E9E
330
28E98
100
AcDbEntity
  8
Pel_Muntin_AS
100
AcDbPolyline
 90
        4
 70
     1
 43
0.0
 10
14.62433000000004
 20
12.375
 10
14.62433000000004
 20
4.625
 10
4.625000000000056
 20
4.625
 10
4.625000000000056
 20
12.375
  0
LWPOLYLINE
  5
28E9F
330
28E98
100
AcDbEntity
  8
Pel_Muntin_AS
100
AcDbPolyline
 90
        4
 70
     1
 43
0.0
 10
25.49967000000009
 20
12.375
 10
25.49967000000009
 20
4.625
 10
15.50033000000002
 20
4.625
 10
15.50033000000002
 20
12.375
  0
LWPOLYLINE
  5
28EA2
330
28E98
100
AcDbEntity
  8
Pel_Muntin_AS
100
AcDbPolyline
 90
        4
 70
     1
 43
0.0
 10
36.37500000000006
 20
12.375
 10
36.37500000000006
 20
4.625
 10
26.37567000000007
 20
4.625
 10
26.37567000000007
 20
12.375
  0
LWPOLYLINE
  5
2AAC9
330
28E98
100
AcDbEntity
  8
Pel_Hinging
 48
6.0
100
AcDbPolyline
 90
        3
 70
     0
 43
0.0
 10
1.0
 20
16.0
 10
20.49999999999994
 20
1.0
 10
40.0
 20
16.0
  0
ENDBLK
  5
28EA6
330
28E98
100
AcDbEntity
  8
0
100
AcDbBlockEnd
  0
BLOCK
  5
28EB7
330
28EA8
100
AcDbEntity
  8
0
100
AcDbBlockBegin
  2
ASPCHP5317T
 70
     0
 10
0.0
 20
0.0
 30
0.0
  3
ASPCHP5317T
  1

  0
LWPOLYLINE
  5
28EA9
330
28EA8
100
AcDbEntity
  8
Pel_Frame_Outside
100
AcDbPolyline
 90
        4
 70
     1
 43
0.0
 10
0.0
 20
0.0
 10
0.0
 20
17.0
 10
52.99999999999989
 20
17.0
 10
52.99999999999989
 20
0.0
  0
LWPOLYLINE
  5
28EAA
330
28EA8
100
AcDbEntity
  8
Pel_Sash_Outside
100
AcDbPolyline
 90
        4
 70
     1
 43
0.0
 10
52.0
 20
1.0
 10
52.0
 20
16.0
 10
1.0
 20
16.0
 10
1.0
 20
1.0
  0
LWPOLYLINE
  5
28EAB
330
28EA8
100
AcDbEntity
  8
Pel_Sash_Inside
100
AcDbPolyline
 90
        4
 70
     1
 43
0.0
 10
48.37499999999988
 20
12.375
 10
4.625
 20
12.375
 10
4.625
 20
4.625
 10
48.37499999999988
 20
4.625
  0
LWPOLYLINE
  5
28EAE
330
28EA8
100
AcDbEntity
  8
Pel_Muntin_AS
100
AcDbPolyline
 90
        4
 70
     1
 43
0.0
 10
14.90550000000007
 20
12.375
 10
14.90550000000007
 20
4.625
 10
4.625
 20
4.625
 10
4.625
 20
12.375
  0
LWPOLYLINE
  5
28EAF
330
28EA8
100
AcDbEntity
  8
Pel_Muntin_AS
100
AcDbPolyline
 90
        4
 70
     1
 43
0.0
 10
26.06200000000001
 20
12.375
 10
26.06200000000001
 20
4.625
 10
15.78150000000005
 20
4.625
 10
15.78150000000005
 20
12.375
  0
LWPOLYLINE
  5
28EB2
330
28EA8
100
AcDbEntity
  8
Pel_Muntin_AS
100
AcDbPolyline
 90
        4
 70
     1
 43
0.0
 10
48.37499999999988
 20
12.375
 10
48.37499999999988
 20
4.625
 10
38.09449999999993
 20
4.625
 10
38.09449999999993
 20
12.375
  0
LWPOLYLINE
  5
28EB3
330
28EA8
100
AcDbEntity
  8
Pel_Muntin_AS
100
AcDbPolyline
 90
        4
 70
     1
 43
0.0
 10
37.21850000000006
 20
12.375
 10
37.21850000000006
 20
4.625
 10
26.93799999999999
 20
4.625
 10
26.93799999999999
 20
12.375
  0
LWPOLYLINE
  5
2AA3C
330
28EA8
100
AcDbEntity
  8
Pel_Hinging
 48
6.0
100
AcDbPolyline
 90
        3
 70
     0
 43
0.0
 10
1.0
 20
16.0
 10
26.5
 20
1.0
 10
52.0
 20
16.0
  0
ENDBLK
  5
28EB8
330
28EA8
100
AcDbEntity
  8
0
100
AcDbBlockEnd
  0
BLOCK
  5
28EED
330
28EE0
100
AcDbEntity
  8
0
100
AcDbBlockBegin
  2
ASPCHP3521T
 70
     0
 10
0.0
 20
0.0
 30
0.0
  3
ASPCHP3521T
  1

  0
LWPOLYLINE
  5
28EE1
330
28EE0
100
AcDbEntity
  8
Pel_Frame_Outside
100
AcDbPolyline
 90
        4
 70
     1
 43
0.0
 10
0.0000000000001137
 20
0.0
 10
-0.0000000000003411
 20
21.0
 10
34.99999999999966
 20
21.0000000000008
 10
35.00000000000011
 20
0.0000000000007958
  0
LWPOLYLINE
  5
28EE2
330
28EE0
100
AcDbEntity
  8
Pel_Sash_Outside
100
AcDbPolyline
 90
        4
 70
     1
 43
0.0
 10
34.0
 20
1.0
 10
34.0
 20
20.0
 10
1.0
 20
20.0
 10
1.0
 20
1.0
  0
LWPOLYLINE
  5
28EE3
330
28EE0
100
AcDbEntity
  8
Pel_Sash_Inside
100
AcDbPolyline
 90
        4
 70
     1
 43
0.0
 10
30.37499999999977
 20
16.37500000000068
 10
4.624999999999772
 20
16.37500000000011
 10
4.625
 20
4.625000000000113
 10
30.375
 20
4.625000000000682
  0
LWPOLYLINE
  5
28EE5
330
28EE0
100
AcDbEntity
  8
Pel_Muntin_AS
100
AcDbPolyline
 90
        4
 70
     1
 43
0.0
 10
12.62432999999976
 20
16.37500000000034
 10
12.62432999999987
 20
10.93800000000033
 10
4.624999999999886
 20
10.9380000000001
 10
4.624999999999772
 20
16.37500000000011
  0
LWPOLYLINE
  5
28EE6
330
28EE0
100
AcDbEntity
  8
Pel_Muntin_AS
100
AcDbPolyline
 90
        4
 70
     1
 43
0.0
 10
12.62432999999987
 20
10.06200000000035
 10
12.62432999999999
 20
4.625000000000341
 10
4.625
 20
4.625000000000113
 10
4.624999999999886
 20
10.06200000000012
  0
LWPOLYLINE
  5
28EE7
330
28EE0
100
AcDbEntity
  8
Pel_Muntin_AS
100
AcDbPolyline
 90
        4
 70
     1
 43
0.0
 10
21.49966999999993
 20
10.06200000000046
 10
21.49967000000004
 20
4.625000000000454
 10
13.50032999999996
 20
4.625000000000341
 10
13.50032999999985
 20
10.06200000000035
  0
LWPOLYLINE
  5
28EE8
330
28EE0
100
AcDbEntity
  8
Pel_Muntin_AS
100
AcDbPolyline
 90
        4
 70
     1
 43
0.0
 10
21.49966999999981
 20
16.37500000000045
 10
21.49966999999993
 20
10.93800000000044
 10
13.50032999999985
 20
10.93800000000033
 10
13.50032999999973
 20
16.37500000000034
  0
LWPOLYLINE
  5
28EE9
330
28EE0
100
AcDbEntity
  8
Pel_Muntin_AS
100
AcDbPolyline
 90
        4
 70
     1
 43
0.0
 10
30.37499999999977
 20
16.37500000000068
 10
30.37499999999989
 20
10.93800000000067
 10
22.3756699999999
 20
10.93800000000044
 10
22.37566999999978
 20
16.37500000000045
  0
LWPOLYLINE
  5
28EEA
330
28EE0
100
AcDbEntity
  8
Pel_Muntin_AS
100
AcDbPolyline
 90
        4
 70
     1
 43
0.0
 10
30.37499999999989
 20
10.06200000000069
 10
30.375
 20
4.625000000000682
 10
22.37567000000002
 20
4.625000000000454
 10
22.3756699999999
 20
10.06200000000046
  0
LWPOLYLINE
  5
2AAE7
330
28EE0
100
AcDbEntity
  8
Pel_Hinging
 48
6.0
100
AcDbPolyline
 90
        3
 70
     0
 43
0.0
 10
1.0
 20
20.0
 10
17.5
 20
1.0
 10
34.0
 20
20.0
  0
ENDBLK
  5
28EEE
330
28EE0
100
AcDbEntity
  8
0
100
AcDbBlockEnd
  0
BLOCK
  5
28EFD
330
28EF0
100
AcDbEntity
  8
0
100
AcDbBlockBegin
  2
ASPCHP4121T
 70
     0
 10
0.0
 20
0.0
 30
0.0
  3
ASPCHP4121T
  1

  0
LWPOLYLINE
  5
28EF1
330
28EF0
100
AcDbEntity
  8
Pel_Frame_Outside
100
AcDbPolyline
 90
        4
 70
     1
 43
0.0
 10
-0.0000000000000568
 20
0.0
 10
-0.0000000000000568
 20
21.0
 10
40.99999999999994
 20
21.0
 10
40.99999999999994
 20
0.0
  0
LWPOLYLINE
  5
28EF2
330
28EF0
100
AcDbEntity
  8
Pel_Sash_Outside
100
AcDbPolyline
 90
        4
 70
     1
 43
0.0
 10
40.0
 20
1.0
 10
40.0
 20
20.0
 10
1.0
 20
20.0
 10
1.0
 20
1.0
  0
LWPOLYLINE
  5
28EF3
330
28EF0
100
AcDbEntity
  8
Pel_Sash_Inside
100
AcDbPolyline
 90
        4
 70
     1
 43
0.0
 10
36.37499999999994
 20
16.375
 10
4.624999999999943
 20
16.375
 10
4.624999999999943
 20
4.625
 10
36.37499999999994
 20
4.625
  0
LWPOLYLINE
  5
28EF5
330
28EF0
100
AcDbEntity
  8
Pel_Muntin_AS
100
AcDbPolyline
 90
        4
 70
     1
 43
0.0
 10
14.62432999999993
 20
16.375
 10
14.62432999999993
 20
10.93799999999998
 10
4.624999999999943
 20
10.93799999999998
 10
4.624999999999943
 20
16.375
  0
LWPOLYLINE
  5
28EF6
330
28EF0
100
AcDbEntity
  8
Pel_Muntin_AS
100
AcDbPolyline
 90
        4
 70
     1
 43
0.0
 10
14.62432999999993
 20
10.06200000000001
 10
14.62432999999993
 20
4.625
 10
4.624999999999943
 20
4.625
 10
4.624999999999943
 20
10.06200000000001
  0
LWPOLYLINE
  5
28EF7
330
28EF0
100
AcDbEntity
  8
Pel_Muntin_AS
100
AcDbPolyline
 90
        4
 70
     1
 43
0.0
 10
25.49966999999987
 20
10.06200000000001
 10
25.49966999999987
 20
4.625
 10
15.50033000000002
 20
4.625
 10
15.50033000000002
 20
10.06200000000001
  0
LWPOLYLINE
  5
28EF8
330
28EF0
100
AcDbEntity
  8
Pel_Muntin_AS
100
AcDbPolyline
 90
        4
 70
     1
 43
0.0
 10
25.49966999999987
 20
16.375
 10
25.49966999999987
 20
10.93799999999998
 10
15.50033000000002
 20
10.93799999999998
 10
15.50033000000002
 20
16.375
  0
LWPOLYLINE
  5
28EF9
330
28EF0
100
AcDbEntity
  8
Pel_Muntin_AS
100
AcDbPolyline
 90
        4
 70
     1
 43
0.0
 10
36.37499999999994
 20
16.375
 10
36.37499999999994
 20
10.93799999999998
 10
26.37566999999996
 20
10.93799999999998
 10
26.37566999999996
 20
16.375
  0
LWPOLYLINE
  5
28EFA
330
28EF0
100
AcDbEntity
  8
Pel_Muntin_AS
100
AcDbPolyline
 90
        4
 70
     1
 43
0.0
 10
36.37499999999994
 20
10.06200000000001
 10
36.37499999999994
 20
4.625
 10
26.37566999999996
 20
4.625
 10
26.37566999999996
 20
10.06200000000001
  0
LWPOLYLINE
  5
2AAAD
330
28EF0
100
AcDbEntity
  8
Pel_Hinging
 48
6.0
100
AcDbPolyline
 90
        3
 70
     0
 43
0.0
 10
1.0
 20
20.0
 10
20.5
 20
1.0
 10
40.0
 20
20.0
  0
ENDBLK
  5
28EFE
330
28EF0
100
AcDbEntity
  8
0
100
AcDbBlockEnd
  0
BLOCK
  5
28F0D
330
28F00
100
AcDbEntity
  8
0
100
AcDbBlockBegin
  2
ASPCHP4721T
 70
     0
 10
0.0
 20
0.0
 30
0.0
  3
ASPCHP4721T
  1

  0
LWPOLYLINE
  5
28F01
330
28F00
100
AcDbEntity
  8
Pel_Frame_Outside
100
AcDbPolyline
 90
        4
 70
     1
 43
0.0
 10
0.0000000000000568
 20
0.0
 10
0.0000000000000568
 20
21.0
 10
47.00000000000011
 20
21.0
 10
47.00000000000011
 20
0.0
  0
LWPOLYLINE
  5
28F02
330
28F00
100
AcDbEntity
  8
Pel_Sash_Outside
100
AcDbPolyline
 90
        4
 70
     1
 43
0.0
 10
46.0
 20
1.0
 10
46.0
 20
20.0
 10
1.0
 20
20.0
 10
1.0
 20
1.0
  0
LWPOLYLINE
  5
28F03
330
28F00
100
AcDbEntity
  8
Pel_Sash_Inside
100
AcDbPolyline
 90
        4
 70
     1
 43
0.0
 10
42.37500000000011
 20
16.375
 10
4.625000000000056
 20
16.375
 10
4.625000000000056
 20
4.625
 10
42.37500000000011
 20
4.625
  0
LWPOLYLINE
  5
28F05
330
28F00
100
AcDbEntity
  8
Pel_Muntin_AS
100
AcDbPolyline
 90
        4
 70
     1
 43
0.0
 10
13.40549999999996
 20
16.375
 10
13.40549999999996
 20
10.93799999999998
 10
4.625000000000056
 20
10.93799999999998
 10
4.625000000000056
 20
16.375
  0
LWPOLYLINE
  5
28F06
330
28F00
100
AcDbEntity
  8
Pel_Muntin_AS
100
AcDbPolyline
 90
        4
 70
     1
 43
0.0
 10
13.40549999999996
 20
10.06200000000001
 10
13.40549999999996
 20
4.625
 10
4.625000000000056
 20
4.625
 10
4.625000000000056
 20
10.06200000000001
  0
LWPOLYLINE
  5
28F07
330
28F00
100
AcDbEntity
  8
Pel_Muntin_AS
100
AcDbPolyline
 90
        4
 70
     1
 43
0.0
 10
23.06199999999996
 20
10.06200000000001
 10
23.06199999999996
 20
4.625
 10
14.28150000000005
 20
4.625
 10
14.28150000000005
 20
10.06200000000001
  0
LWPOLYLINE
  5
28F08
330
28F00
100
AcDbEntity
  8
Pel_Muntin_AS
100
AcDbPolyline
 90
        4
 70
     1
 43
0.0
 10
23.06199999999996
 20
16.375
 10
23.06199999999996
 20
10.93799999999998
 10
14.28150000000005
 20
10.93799999999998
 10
14.28150000000005
 20
16.375
  0
LWPOLYLINE
  5
28F09
330
28F00
100
AcDbEntity
  8
Pel_Muntin_AS
100
AcDbPolyline
 90
        4
 70
     1
 43
0.0
 10
42.37500000000011
 20
16.375
 10
42.37500000000011
 20
10.93799999999998
 10
33.59449999999993
 20
10.93799999999998
 10
33.59449999999993
 20
16.375
  0
LWPOLYLINE
  5
28F0A
330
28F00
100
AcDbEntity
  8
Pel_Muntin_AS
100
AcDbPolyline
 90
        4
 70
     1
 43
0.0
 10
42.37500000000011
 20
10.06200000000001
 10
42.37500000000011
 20
4.625
 10
33.59449999999993
 20
4.625
 10
33.59449999999993
 20
10.06200000000001
  0
LWPOLYLINE
  5
2AA5C
330
28F00
100
AcDbEntity
  8
Pel_Hinging
 48
6.0
100
AcDbPolyline
 90
        3
 70
     0
 43
0.0
 10
1.0
 20
20.0
 10
23.5
 20
1.0
 10
46.0
 20
20.0
  0
LWPOLYLINE
  5
2AA5D
330
28F00
100
AcDbEntity
  8
Pel_Muntin_AS
100
AcDbPolyline
 90
        4
 70
     1
 43
0.0
 10
32.71849999999995
 20
10.06200000000001
 10
32.71849999999995
 20
4.625
 10
23.93800000000005
 20
4.625
 10
23.93800000000005
 20
10.06200000000001
  0
LWPOLYLINE
  5
2AA5E
330
28F00
100
AcDbEntity
  8
Pel_Muntin_AS
100
AcDbPolyline
 90
        4
 70
     1
 43
0.0
 10
32.71849999999995
 20
16.375
 10
32.71849999999995
 20
10.93799999999998
 10
23.93800000000005
 20
10.93799999999998
 10
23.93800000000005
 20
16.375
  0
ENDBLK
  5
28F0E
330
28F00
100
AcDbEntity
  8
0
100
AcDbBlockEnd
  0
BLOCK
  5
28F20
330
28F11
100
AcDbEntity
  8
0
100
AcDbBlockBegin
  2
ASPCHP5321T
 70
     0
 10
0.0
 20
0.0
 30
0.0
  3
ASPCHP5321T
  1

  0
LWPOLYLINE
  5
28F12
330
28F11
100
AcDbEntity
  8
Pel_Frame_Outside
100
AcDbPolyline
 90
        4
 70
     1
 43
0.0
 10
0.0
 20
0.0
 10
0.0
 20
21.0
 10
52.99999999999989
 20
21.0
 10
52.99999999999989
 20
0.0
  0
LWPOLYLINE
  5
28F13
330
28F11
100
AcDbEntity
  8
Pel_Sash_Outside
100
AcDbPolyline
 90
        4
 70
     1
 43
0.0
 10
52.0
 20
1.0
 10
52.0
 20
20.0
 10
1.0
 20
20.0
 10
1.0
 20
1.0
  0
LWPOLYLINE
  5
28F14
330
28F11
100
AcDbEntity
  8
Pel_Sash_Inside
100
AcDbPolyline
 90
        4
 70
     1
 43
0.0
 10
48.37499999999988
 20
16.375
 10
4.625
 20
16.375
 10
4.625
 20
4.625
 10
48.37499999999988
 20
4.625
  0
LWPOLYLINE
  5
28F16
330
28F11
100
AcDbEntity
  8
Pel_Muntin_AS
100
AcDbPolyline
 90
        4
 70
     1
 43
0.0
 10
14.90549999999996
 20
16.375
 10
14.90549999999996
 20
10.93799999999998
 10
4.625
 20
10.93799999999998
 10
4.625
 20
16.375
  0
LWPOLYLINE
  5
28F17
330
28F11
100
AcDbEntity
  8
Pel_Muntin_AS
100
AcDbPolyline
 90
        4
 70
     1
 43
0.0
 10
14.90549999999996
 20
10.06200000000001
 10
14.90549999999996
 20
4.625
 10
4.625
 20
4.625
 10
4.625
 20
10.06200000000001
  0
LWPOLYLINE
  5
28F18
330
28F11
100
AcDbEntity
  8
Pel_Muntin_AS
100
AcDbPolyline
 90
        4
 70
     1
 43
0.0
 10
26.06200000000001
 20
10.06200000000001
 10
26.06200000000001
 20
4.625
 10
15.78150000000005
 20
4.625
 10
15.78150000000005
 20
10.06200000000001
  0
LWPOLYLINE
  5
28F19
330
28F11
100
AcDbEntity
  8
Pel_Muntin_AS
100
AcDbPolyline
 90
        4
 70
     1
 43
0.0
 10
26.06200000000001
 20
16.375
 10
26.06200000000001
 20
10.93799999999998
 10
15.78150000000005
 20
10.93799999999998
 10
15.78150000000005
 20
16.375
  0
LWPOLYLINE
  5
28F1A
330
28F11
100
AcDbEntity
  8
Pel_Muntin_AS
100
AcDbPolyline
 90
        4
 70
     1
 43
0.0
 10
48.37499999999988
 20
16.375
 10
48.37499999999988
 20
10.93799999999998
 10
38.09450000000004
 20
10.93799999999998
 10
38.09450000000004
 20
16.375
  0
LWPOLYLINE
  5
28F1B
330
28F11
100
AcDbEntity
  8
Pel_Muntin_AS
100
AcDbPolyline
 90
        4
 70
     1
 43
0.0
 10
48.37499999999988
 20
10.06200000000001
 10
48.37499999999988
 20
4.625
 10
38.09450000000004
 20
4.625
 10
38.09450000000004
 20
10.06200000000001
  0
LWPOLYLINE
  5
28F1C
330
28F11
100
AcDbEntity
  8
Pel_Muntin_AS
100
AcDbPolyline
 90
        4
 70
     1
 43
0.0
 10
37.21849999999995
 20
10.06200000000001
 10
37.21849999999995
 20
4.625
 10
26.93799999999999
 20
4.625
 10
26.93799999999999
 20
10.06200000000001
  0
LWPOLYLINE
  5
28F1D
330
28F11
100
AcDbEntity
  8
Pel_Muntin_AS
100
AcDbPolyline
 90
        4
 70
     1
 43
0.0
 10
37.21849999999995
 20
16.375
 10
37.21849999999995
 20
10.93799999999998
 10
26.93799999999999
 20
10.93799999999998
 10
26.93799999999999
 20
16.375
  0
LWPOLYLINE
  5
2A98D
330
28F11
100
AcDbEntity
  8
Pel_Hinging
 48
6.0
100
AcDbPolyline
 90
        3
 70
     0
 43
0.0
 10
1.0
 20
20.0
 10
26.5
 20
1.0
 10
52.0
 20
20.0
  0
ENDBLK
  5
28F21
330
28F11
100
AcDbEntity
  8
0
100
AcDbBlockEnd
  0
BLOCK
  5
28F56
330
28F49
100
AcDbEntity
  8
0
100
AcDbBlockBegin
  2
ASPCHP3523T
 70
     0
 10
0.0
 20
0.0
 30
0.0
  3
ASPCHP3523T
  1

  0
LWPOLYLINE
  5
28F4A
330
28F49
100
AcDbEntity
  8
Pel_Frame_Outside
100
AcDbPolyline
 90
        4
 70
     1
 43
0.0
 10
0.0000000000000568
 20
0.0
 10
0.0000000000000568
 20
23.0
 10
35.00000000000006
 20
23.0
 10
35.00000000000006
 20
0.0
  0
LWPOLYLINE
  5
28F4B
330
28F49
100
AcDbEntity
  8
Pel_Sash_Outside
100
AcDbPolyline
 90
        4
 70
     1
 43
0.0
 10
34.0
 20
1.0
 10
34.0
 20
22.0
 10
1.0
 20
22.0
 10
1.0
 20
1.0
  0
LWPOLYLINE
  5
28F4C
330
28F49
100
AcDbEntity
  8
Pel_Sash_Inside
100
AcDbPolyline
 90
        4
 70
     1
 43
0.0
 10
30.37500000000006
 20
18.375
 10
4.625000000000056
 20
18.375
 10
4.625000000000056
 20
4.625
 10
30.37500000000006
 20
4.625
  0
LWPOLYLINE
  5
28F4E
330
28F49
100
AcDbEntity
  8
Pel_Muntin_AS
100
AcDbPolyline
 90
        4
 70
     1
 43
0.0
 10
12.62433000000004
 20
18.375
 10
12.62433000000004
 20
11.93799999999999
 10
4.625000000000056
 20
11.93799999999999
 10
4.625000000000056
 20
18.375
  0
LWPOLYLINE
  5
28F4F
330
28F49
100
AcDbEntity
  8
Pel_Muntin_AS
100
AcDbPolyline
 90
        4
 70
     1
 43
0.0
 10
12.62433000000004
 20
11.06200000000001
 10
12.62433000000004
 20
4.625
 10
4.625000000000056
 20
4.625
 10
4.625000000000056
 20
11.06200000000001
  0
LWPOLYLINE
  5
28F50
330
28F49
100
AcDbEntity
  8
Pel_Muntin_AS
100
AcDbPolyline
 90
        4
 70
     1
 43
0.0
 10
21.49966
 20
18.375
 10
21.49966
 20
11.93799999999999
 10
13.50033000000002
 20
11.93799999999999
 10
13.50033000000002
 20
18.375
  0
LWPOLYLINE
  5
28F51
330
28F49
100
AcDbEntity
  8
Pel_Muntin_AS
100
AcDbPolyline
 90
        4
 70
     1
 43
0.0
 10
21.49966
 20
11.06200000000001
 10
21.49966
 20
4.625
 10
13.50033000000002
 20
4.625
 10
13.50033000000002
 20
11.06200000000001
  0
LWPOLYLINE
  5
28F52
330
28F49
100
AcDbEntity
  8
Pel_Muntin_AS
100
AcDbPolyline
 90
        4
 70
     1
 43
0.0
 10
30.37500000000006
 20
18.375
 10
30.37500000000006
 20
11.93799999999999
 10
22.37567000000007
 20
11.93799999999999
 10
22.37567000000007
 20
18.375
  0
LWPOLYLINE
  5
28F53
330
28F49
100
AcDbEntity
  8
Pel_Muntin_AS
100
AcDbPolyline
 90
        4
 70
     1
 43
0.0
 10
30.37500000000006
 20
11.06200000000001
 10
30.37500000000006
 20
4.625
 10
22.37567000000007
 20
4.625
 10
22.37567000000007
 20
11.06200000000001
  0
LWPOLYLINE
  5
2A909
330
28F49
100
AcDbEntity
  8
Pel_Hinging
 48
6.0
100
AcDbPolyline
 90
        3
 70
     0
 43
0.0
 10
1.0
 20
22.0
 10
17.5
 20
1.0
 10
34.0
 20
22.0
  0
ENDBLK
  5
28F57
330
28F49
100
AcDbEntity
  8
0
100
AcDbBlockEnd
  0
BLOCK
  5
28F66
330
28F59
100
AcDbEntity
  8
0
100
AcDbBlockBegin
  2
ASPCHP4123T
 70
     0
 10
0.0
 20
0.0
 30
0.0
  3
ASPCHP4123T
  1

  0
LWPOLYLINE
  5
28F5A
330
28F59
100
AcDbEntity
  8
Pel_Frame_Outside
100
AcDbPolyline
 90
        4
 70
     1
 43
0.0
 10
0.0000000000000568
 20
0.0
 10
0.0000000000000568
 20
23.0
 10
41.00000000000005
 20
23.0
 10
41.00000000000005
 20
0.0
  0
LWPOLYLINE
  5
28F5B
330
28F59
100
AcDbEntity
  8
Pel_Sash_Outside
100
AcDbPolyline
 90
        4
 70
     1
 43
0.0
 10
40.0
 20
1.0
 10
40.0
 20
22.0
 10
1.0
 20
22.0
 10
1.0
 20
1.0
  0
LWPOLYLINE
  5
28F5C
330
28F59
100
AcDbEntity
  8
Pel_Sash_Inside
100
AcDbPolyline
 90
        4
 70
     1
 43
0.0
 10
36.37500000000006
 20
18.375
 10
4.625000000000056
 20
18.375
 10
4.625000000000056
 20
4.625
 10
36.37500000000006
 20
4.625
  0
LWPOLYLINE
  5
28F5E
330
28F59
100
AcDbEntity
  8
Pel_Muntin_AS
100
AcDbPolyline
 90
        4
 70
     1
 43
0.0
 10
14.62433000000004
 20
18.375
 10
14.62433000000004
 20
11.93799999999999
 10
4.625000000000056
 20
11.93799999999999
 10
4.625000000000056
 20
18.375
  0
LWPOLYLINE
  5
28F5F
330
28F59
100
AcDbEntity
  8
Pel_Muntin_AS
100
AcDbPolyline
 90
        4
 70
     1
 43
0.0
 10
14.62433000000004
 20
11.06200000000001
 10
14.62433000000004
 20
4.625
 10
4.625000000000056
 20
4.625
 10
4.625000000000056
 20
11.06200000000001
  0
LWPOLYLINE
  5
28F60
330
28F59
100
AcDbEntity
  8
Pel_Muntin_AS
100
AcDbPolyline
 90
        4
 70
     1
 43
0.0
 10
25.49966000000001
 20
18.375
 10
25.49966000000001
 20
11.93799999999999
 10
15.50033000000002
 20
11.93799999999999
 10
15.50033000000002
 20
18.375
  0
LWPOLYLINE
  5
28F61
330
28F59
100
AcDbEntity
  8
Pel_Muntin_AS
100
AcDbPolyline
 90
        4
 70
     1
 43
0.0
 10
25.49966000000001
 20
11.06200000000001
 10
25.49966000000001
 20
4.625
 10
15.50033000000002
 20
4.625
 10
15.50033000000002
 20
11.06200000000001
  0
LWPOLYLINE
  5
28F62
330
28F59
100
AcDbEntity
  8
Pel_Muntin_AS
100
AcDbPolyline
 90
        4
 70
     1
 43
0.0
 10
36.37500000000006
 20
18.375
 10
36.37500000000006
 20
11.93799999999999
 10
26.37567000000007
 20
11.93799999999999
 10
26.37567000000007
 20
18.375
  0
LWPOLYLINE
  5
28F63
330
28F59
100
AcDbEntity
  8
Pel_Muntin_AS
100
AcDbPolyline
 90
        4
 70
     1
 43
0.0
 10
36.37500000000006
 20
11.06200000000001
 10
36.37500000000006
 20
4.625
 10
26.37567000000007
 20
4.625
 10
26.37567000000007
 20
11.06200000000001
  0
LWPOLYLINE
  5
2A927
330
28F59
100
AcDbEntity
  8
Pel_Hinging
 48
6.0
100
AcDbPolyline
 90
        3
 70
     0
 43
0.0
 10
1.0
 20
22.0
 10
20.5
 20
1.0
 10
39.99999999999995
 20
22.0
  0
ENDBLK
  5
28F67
330
28F59
100
AcDbEntity
  8
0
100
AcDbBlockEnd
  0
BLOCK
  5
28F78
330
28F69
100
AcDbEntity
  8
0
100
AcDbBlockBegin
  2
ASPCHP5323T
 70
     0
 10
0.0
 20
0.0
 30
0.0
  3
ASPCHP5323T
  1

  0
LWPOLYLINE
  5
28F6A
330
28F69
100
AcDbEntity
  8
Pel_Frame_Outside
100
AcDbPolyline
 90
        4
 70
     1
 43
0.0
 10
0.0000000000001137
 20
0.0
 10
-0.0000000000003411
 20
23.0
 10
52.99999999999954
 20
23.00000000000114
 10
53.0
 20
0.0000000000011369
  0
LWPOLYLINE
  5
28F6B
330
28F69
100
AcDbEntity
  8
Pel_Sash_Outside
100
AcDbPolyline
 90
        4
 70
     1
 43
0.0
 10
52.0
 20
1.0
 10
52.0
 20
22.0
 10
1.0
 20
22.0
 10
1.0
 20
1.0
  0
LWPOLYLINE
  5
28F6C
330
28F69
100
AcDbEntity
  8
Pel_Sash_Inside
100
AcDbPolyline
 90
        4
 70
     1
 43
0.0
 10
48.37499999999966
 20
18.37500000000102
 10
4.624999999999658
 20
18.37500000000011
 10
4.625
 20
4.625000000000113
 10
48.37499999999988
 20
4.625000000001023
  0
LWPOLYLINE
  5
28F6E
330
28F69
100
AcDbEntity
  8
Pel_Muntin_AS
100
AcDbPolyline
 90
        4
 70
     1
 43
0.0
 10
14.90549999999973
 20
18.37500000000034
 10
14.90549999999984
 20
11.93800000000033
 10
4.624999999999772
 20
11.9380000000001
 10
4.624999999999658
 20
18.37500000000011
  0
LWPOLYLINE
  5
28F6F
330
28F69
100
AcDbEntity
  8
Pel_Muntin_AS
100
AcDbPolyline
 90
        4
 70
     1
 43
0.0
 10
14.90549999999996
 20
11.06200000000035
 10
14.90550000000007
 20
4.625000000000341
 10
4.625
 20
4.625000000000113
 10
4.624999999999886
 20
11.06200000000012
  0
LWPOLYLINE
  5
28F70
330
28F69
100
AcDbEntity
  8
Pel_Muntin_AS
100
AcDbPolyline
 90
        4
 70
     1
 43
0.0
 10
26.06199999999967
 20
18.37500000000057
 10
26.06199999999978
 20
11.93800000000055
 10
15.78149999999982
 20
11.93800000000033
 10
15.78149999999971
 20
18.37500000000034
  0
LWPOLYLINE
  5
28F71
330
28F69
100
AcDbEntity
  8
Pel_Muntin_AS
100
AcDbPolyline
 90
        4
 70
     1
 43
0.0
 10
26.0619999999999
 20
11.06200000000058
 10
26.06200000000001
 20
4.625000000000568
 10
15.78150000000005
 20
4.625000000000341
 10
15.78149999999993
 20
11.06200000000035
  0
LWPOLYLINE
  5
28F72
330
28F69
100
AcDbEntity
  8
Pel_Muntin_AS
100
AcDbPolyline
 90
        4
 70
     1
 43
0.0
 10
48.37499999999966
 20
18.37500000000102
 10
48.37499999999977
 20
11.93800000000101
 10
38.09449999999981
 20
11.93800000000078
 10
38.0944999999997
 20
18.37500000000079
  0
LWPOLYLINE
  5
28F73
330
28F69
100
AcDbEntity
  8
Pel_Muntin_AS
100
AcDbPolyline
 90
        4
 70
     1
 43
0.0
 10
48.37499999999977
 20
11.06200000000103
 10
48.37499999999988
 20
4.625000000001023
 10
38.09449999999993
 20
4.625000000000795
 10
38.09449999999981
 20
11.06200000000081
  0
LWPOLYLINE
  5
28F74
330
28F69
100
AcDbEntity
  8
Pel_Muntin_AS
100
AcDbPolyline
 90
        4
 70
     1
 43
0.0
 10
37.21849999999961
 20
18.37500000000079
 10
37.21849999999972
 20
11.93800000000078
 10
26.93799999999976
 20
11.93800000000055
 10
26.93799999999965
 20
18.37500000000057
  0
LWPOLYLINE
  5
28F75
330
28F69
100
AcDbEntity
  8
Pel_Muntin_AS
100
AcDbPolyline
 90
        4
 70
     1
 43
0.0
 10
37.21849999999984
 20
11.06200000000081
 10
37.21849999999995
 20
4.625000000000795
 10
26.93799999999999
 20
4.625000000000568
 10
26.93799999999987
 20
11.06200000000058
  0
LWPOLYLINE
  5
2A96B
330
28F69
100
AcDbEntity
  8
Pel_Hinging
 48
6.0
100
AcDbPolyline
 90
        3
 70
     0
 43
0.0
 10
1.0
 20
22.0
 10
26.5
 20
1.0
 10
52.0
 20
22.0
  0
ENDBLK
  5
28F79
330
28F69
100
AcDbEntity
  8
0
100
AcDbBlockEnd
  0
BLOCK
  5
28F88
330
28F7B
100
AcDbEntity
  8
0
100
AcDbBlockBegin
  2
ASPCHP4723T
 70
     0
 10
0.0
 20
0.0
 30
0.0
  3
ASPCHP4723T
  1

  0
LWPOLYLINE
  5
28F7C
330
28F7B
100
AcDbEntity
  8
Pel_Frame_Outside
100
AcDbPolyline
 90
        4
 70
     1
 43
0.0
 10
0.0000000000000568
 20
0.0
 10
-0.0000000000001705
 20
23.0
 10
46.99999999999977
 20
23.00000000000046
 10
47.0
 20
0.0000000000004547
  0
LWPOLYLINE
  5
28F7D
330
28F7B
100
AcDbEntity
  8
Pel_Sash_Outside
100
AcDbPolyline
 90
        4
 70
     1
 43
0.0
 10
46.0
 20
1.0
 10
46.0
 20
22.0
 10
1.0
 20
22.0
 10
1.0
 20
1.0
  0
LWPOLYLINE
  5
28F7E
330
28F7B
100
AcDbEntity
  8
Pel_Sash_Inside
100
AcDbPolyline
 90
        4
 70
     1
 43
0.0
 10
42.37499999999989
 20
18.37500000000045
 10
4.624999999999829
 20
18.375
 10
4.625
 20
4.625
 10
42.37499999999999
 20
4.625000000000454
  0
LWPOLYLINE
  5
28F80
330
28F7B
100
AcDbEntity
  8
Pel_Muntin_AS
100
AcDbPolyline
 90
        4
 70
     1
 43
0.0
 10
13.40549999999979
 20
18.37500000000011
 10
13.40549999999985
 20
11.9380000000001
 10
4.624999999999886
 20
11.93799999999999
 10
4.624999999999829
 20
18.375
  0
LWPOLYLINE
  5
28F81
330
28F7B
100
AcDbEntity
  8
Pel_Muntin_AS
100
AcDbPolyline
 90
        4
 70
     1
 43
0.0
 10
13.4054999999999
 20
11.06200000000012
 10
13.40549999999996
 20
4.625000000000113
 10
4.625
 20
4.625
 10
4.624999999999943
 20
11.06200000000001
  0
LWPOLYLINE
  5
28F82
330
28F7B
100
AcDbEntity
  8
Pel_Muntin_AS
100
AcDbPolyline
 90
        4
 70
     1
 43
0.0
 10
23.06199999999996
 20
18.37500000000034
 10
23.06199999999996
 20
11.93800000000033
 10
14.28149999999982
 20
11.93800000000021
 10
14.28149999999976
 20
18.37500000000023
  0
LWPOLYLINE
  5
28F83
330
28F7B
100
AcDbEntity
  8
Pel_Muntin_AS
100
AcDbPolyline
 90
        4
 70
     1
 43
0.0
 10
23.06199999999996
 20
11.06200000000035
 10
23.06200000000007
 20
4.625000000000341
 10
14.28149999999994
 20
4.625000000000227
 10
14.28149999999988
 20
11.06200000000024
  0
LWPOLYLINE
  5
28F84
330
28F7B
100
AcDbEntity
  8
Pel_Muntin_AS
100
AcDbPolyline
 90
        4
 70
     1
 43
0.0
 10
42.37499999999989
 20
18.37500000000045
 10
42.37499999999989
 20
11.93800000000044
 10
33.59449999999981
 20
11.93800000000033
 10
33.59449999999981
 20
18.37500000000034
  0
LWPOLYLINE
  5
28F85
330
28F7B
100
AcDbEntity
  8
Pel_Muntin_AS
100
AcDbPolyline
 90
        4
 70
     1
 43
0.0
 10
42.37499999999989
 20
11.06200000000046
 10
42.37499999999999
 20
4.625000000000454
 10
33.59449999999993
 20
4.625000000000341
 10
33.59449999999981
 20
11.06200000000035
  0
LWPOLYLINE
  5
2A947
330
28F7B
100
AcDbEntity
  8
Pel_Muntin_AS
100
AcDbPolyline
 90
        4
 70
     1
 43
0.0
 10
32.71850000000006
 20
18.37500000000045
 10
32.71850000000006
 20
11.93800000000044
 10
23.93799999999993
 20
11.93800000000033
 10
23.93799999999993
 20
18.37500000000034
  0
LWPOLYLINE
  5
2A948
330
28F7B
100
AcDbEntity
  8
Pel_Muntin_AS
100
AcDbPolyline
 90
        4
 70
     1
 43
0.0
 10
32.71850000000006
 20
11.06200000000046
 10
32.71850000000006
 20
4.625000000000454
 10
23.93800000000005
 20
4.625000000000341
 10
23.93799999999993
 20
11.06200000000035
  0
LWPOLYLINE
  5
2A949
330
28F7B
100
AcDbEntity
  8
Pel_Hinging
 48
6.0
100
AcDbPolyline
 90
        3
 70
     0
 43
0.0
 10
1.0
 20
22.0
 10
23.5
 20
1.0
 10
46.0
 20
22.0
  0
ENDBLK
  5
28F89
330
28F7B
100
AcDbEntity
  8
0
100
AcDbBlockEnd
  0
BLOCK
  5
28FBE
330
28FB1
100
AcDbEntity
  8
0
100
AcDbBlockBegin
  2
ASPCHP3525T
 70
     0
 10
0.0
 20
0.0
 30
0.0
  3
ASPCHP3525T
  1

  0
LWPOLYLINE
  5
28FB2
330
28FB1
100
AcDbEntity
  8
Pel_Frame_Outside
100
AcDbPolyline
 90
        4
 70
     1
 43
0.0
 10
0.0000000000000568
 20
0.0
 10
0.0000000000000568
 20
25.0
 10
35.00000000000006
 20
25.0
 10
35.00000000000006
 20
0.0
  0
LWPOLYLINE
  5
28FB3
330
28FB1
100
AcDbEntity
  8
Pel_Sash_Outside
100
AcDbPolyline
 90
        4
 70
     1
 43
0.0
 10
34.0
 20
1.0
 10
34.0
 20
24.0
 10
1.0
 20
24.0
 10
1.0
 20
1.0
  0
LWPOLYLINE
  5
28FB4
330
28FB1
100
AcDbEntity
  8
Pel_Sash_Inside
100
AcDbPolyline
 90
        4
 70
     1
 43
0.0
 10
30.37500000000006
 20
20.375
 10
4.625000000000056
 20
20.375
 10
4.625000000000056
 20
4.625
 10
30.37500000000006
 20
4.625
  0
LWPOLYLINE
  5
28FB6
330
28FB1
100
AcDbEntity
  8
Pel_Muntin_AS
100
AcDbPolyline
 90
        4
 70
     1
 43
0.0
 10
12.62433000000004
 20
20.375
 10
12.62433000000004
 20
12.93799999999999
 10
4.625000000000056
 20
12.93799999999999
 10
4.625000000000056
 20
20.375
  0
LWPOLYLINE
  5
28FB7
330
28FB1
100
AcDbEntity
  8
Pel_Muntin_AS
100
AcDbPolyline
 90
        4
 70
     1
 43
0.0
 10
12.62433000000004
 20
12.06200000000001
 10
12.62433000000004
 20
4.625
 10
4.625000000000056
 20
4.625
 10
4.625000000000056
 20
12.06200000000001
  0
LWPOLYLINE
  5
28FB8
330
28FB1
100
AcDbEntity
  8
Pel_Muntin_AS
100
AcDbPolyline
 90
        4
 70
     1
 43
0.0
 10
21.49967000000009
 20
20.375
 10
21.49967000000009
 20
12.93799999999999
 10
13.50033000000002
 20
12.93799999999999
 10
13.50033000000002
 20
20.375
  0
LWPOLYLINE
  5
28FB9
330
28FB1
100
AcDbEntity
  8
Pel_Muntin_AS
100
AcDbPolyline
 90
        4
 70
     1
 43
0.0
 10
21.49967000000009
 20
12.06200000000001
 10
21.49967000000009
 20
4.625
 10
13.50033000000002
 20
4.625
 10
13.50033000000002
 20
12.06200000000001
  0
LWPOLYLINE
  5
28FBA
330
28FB1
100
AcDbEntity
  8
Pel_Muntin_AS
100
AcDbPolyline
 90
        4
 70
     1
 43
0.0
 10
30.37500000000006
 20
20.375
 10
30.37500000000006
 20
12.93799999999999
 10
22.37567000000007
 20
12.93799999999999
 10
22.37567000000007
 20
20.375
  0
LWPOLYLINE
  5
28FBB
330
28FB1
100
AcDbEntity
  8
Pel_Muntin_AS
100
AcDbPolyline
 90
        4
 70
     1
 43
0.0
 10
30.37500000000006
 20
12.06200000000001
 10
30.37500000000006
 20
4.625
 10
22.37567000000007
 20
4.625
 10
22.37567000000007
 20
12.06200000000001
  0
LWPOLYLINE
  5
2A8E3
330
28FB1
100
AcDbEntity
  8
Pel_Hinging
 48
6.0
100
AcDbPolyline
 90
        3
 70
     0
 43
0.0
 10
1.0
 20
24.0
 10
17.5
 20
1.0
 10
34.0
 20
24.0
  0
ENDBLK
  5
28FBF
330
28FB1
100
AcDbEntity
  8
0
100
AcDbBlockEnd
  0
BLOCK
  5
28FCE
330
28FC1
100
AcDbEntity
  8
0
100
AcDbBlockBegin
  2
ASPCHP4125T
 70
     0
 10
0.0
 20
0.0
 30
0.0
  3
ASPCHP4125T
  1

  0
LWPOLYLINE
  5
28FC2
330
28FC1
100
AcDbEntity
  8
Pel_Frame_Outside
100
AcDbPolyline
 90
        4
 70
     1
 43
0.0
 10
0.0
 20
0.0
 10
0.0
 20
25.0
 10
41.0
 20
25.0
 10
41.0
 20
0.0
  0
LWPOLYLINE
  5
28FC3
330
28FC1
100
AcDbEntity
  8
Pel_Sash_Outside
100
AcDbPolyline
 90
        4
 70
     1
 43
0.0
 10
40.0
 20
1.0
 10
40.0
 20
24.0
 10
1.0
 20
24.0
 10
1.0
 20
1.0
  0
LWPOLYLINE
  5
28FC4
330
28FC1
100
AcDbEntity
  8
Pel_Sash_Inside
100
AcDbPolyline
 90
        4
 70
     1
 43
0.0
 10
36.375
 20
20.375
 10
4.625
 20
20.375
 10
4.625
 20
4.625
 10
36.375
 20
4.625
  0
LWPOLYLINE
  5
28FC6
330
28FC1
100
AcDbEntity
  8
Pel_Muntin_AS
100
AcDbPolyline
 90
        4
 70
     1
 43
0.0
 10
14.62432999999998
 20
20.375
 10
14.62432999999998
 20
12.93799999999999
 10
4.625
 20
12.93799999999999
 10
4.625
 20
20.375
  0
LWPOLYLINE
  5
28FC7
330
28FC1
100
AcDbEntity
  8
Pel_Muntin_AS
100
AcDbPolyline
 90
        4
 70
     1
 43
0.0
 10
14.62432999999998
 20
12.06200000000001
 10
14.62432999999998
 20
4.625
 10
4.625
 20
4.625
 10
4.625
 20
12.06200000000001
  0
LWPOLYLINE
  5
28FC8
330
28FC1
100
AcDbEntity
  8
Pel_Muntin_AS
100
AcDbPolyline
 90
        4
 70
     1
 43
0.0
 10
25.49967000000004
 20
20.375
 10
25.49967000000004
 20
12.93799999999999
 10
15.50032999999996
 20
12.93799999999999
 10
15.50032999999996
 20
20.375
  0
LWPOLYLINE
  5
28FC9
330
28FC1
100
AcDbEntity
  8
Pel_Muntin_AS
100
AcDbPolyline
 90
        4
 70
     1
 43
0.0
 10
25.49967000000004
 20
12.06200000000001
 10
25.49967000000004
 20
4.625
 10
15.50032999999996
 20
4.625
 10
15.50032999999996
 20
12.06200000000001
  0
LWPOLYLINE
  5
28FCA
330
28FC1
100
AcDbEntity
  8
Pel_Muntin_AS
100
AcDbPolyline
 90
        4
 70
     1
 43
0.0
 10
36.375
 20
20.375
 10
36.375
 20
12.93799999999999
 10
26.37567000000001
 20
12.93799999999999
 10
26.37567000000001
 20
20.375
  0
LWPOLYLINE
  5
28FCB
330
28FC1
100
AcDbEntity
  8
Pel_Muntin_AS
100
AcDbPolyline
 90
        4
 70
     1
 43
0.0
 10
36.375
 20
12.06200000000001
 10
36.375
 20
4.625
 10
26.37567000000001
 20
4.625
 10
26.37567000000001
 20
12.06200000000001
  0
LWPOLYLINE
  5
2A8A7
330
28FC1
100
AcDbEntity
  8
Pel_Hinging
 48
6.0
100
AcDbPolyline
 90
        3
 70
     0
 43
0.0
 10
1.0
 20
24.0
 10
20.5
 20
1.0
 10
40.0
 20
24.0
  0
ENDBLK
  5
28FCF
330
28FC1
100
AcDbEntity
  8
0
100
AcDbBlockEnd
  0
BLOCK
  5
28FDE
330
28FD1
100
AcDbEntity
  8
0
100
AcDbBlockBegin
  2
ASPCHP4725T
 70
     0
 10
0.0
 20
0.0
 30
0.0
  3
ASPCHP4725T
  1

  0
LWPOLYLINE
  5
28FD2
330
28FD1
100
AcDbEntity
  8
Pel_Frame_Outside
100
AcDbPolyline
 90
        4
 70
     1
 43
0.0
 10
-0.0000000000000568
 20
0.0
 10
-0.0000000000000568
 20
25.0
 10
46.99999999999988
 20
25.0
 10
46.99999999999988
 20
0.0
  0
LWPOLYLINE
  5
28FD3
330
28FD1
100
AcDbEntity
  8
Pel_Sash_Outside
100
AcDbPolyline
 90
        4
 70
     1
 43
0.0
 10
46.0
 20
1.0
 10
46.0
 20
24.0
 10
1.0
 20
24.0
 10
1.0
 20
1.0
  0
LWPOLYLINE
  5
28FD4
330
28FD1
100
AcDbEntity
  8
Pel_Sash_Inside
100
AcDbPolyline
 90
        4
 70
     1
 43
0.0
 10
42.37499999999989
 20
20.375
 10
4.624999999999943
 20
20.375
 10
4.624999999999943
 20
4.625
 10
42.37499999999989
 20
4.625
  0
LWPOLYLINE
  5
28FD6
330
28FD1
100
AcDbEntity
  8
Pel_Muntin_AS
100
AcDbPolyline
 90
        4
 70
     1
 43
0.0
 10
13.40549999999996
 20
20.375
 10
13.40549999999996
 20
12.93799999999999
 10
4.624999999999943
 20
12.93799999999999
 10
4.624999999999943
 20
20.375
  0
LWPOLYLINE
  5
28FD7
330
28FD1
100
AcDbEntity
  8
Pel_Muntin_AS
100
AcDbPolyline
 90
        4
 70
     1
 43
0.0
 10
13.40549999999996
 20
12.06200000000001
 10
13.40549999999996
 20
4.625
 10
4.624999999999943
 20
4.625
 10
4.624999999999943
 20
12.06200000000001
  0
LWPOLYLINE
  5
28FD8
330
28FD1
100
AcDbEntity
  8
Pel_Muntin_AS
100
AcDbPolyline
 90
        4
 70
     1
 43
0.0
 10
23.06199999999996
 20
20.375
 10
23.06199999999996
 20
12.93799999999999
 10
14.28149999999994
 20
12.93799999999999
 10
14.28149999999994
 20
20.375
  0
LWPOLYLINE
  5
28FD9
330
28FD1
100
AcDbEntity
  8
Pel_Muntin_AS
100
AcDbPolyline
 90
        4
 70
     1
 43
0.0
 10
23.06199999999996
 20
12.06200000000001
 10
23.06199999999996
 20
4.625
 10
14.28149999999994
 20
4.625
 10
14.28149999999994
 20
12.06200000000001
  0
LWPOLYLINE
  5
28FDA
330
28FD1
100
AcDbEntity
  8
Pel_Muntin_AS
100
AcDbPolyline
 90
        4
 70
     1
 43
0.0
 10
42.37499999999989
 20
20.375
 10
42.37499999999989
 20
12.93799999999999
 10
33.59449999999993
 20
12.93799999999999
 10
33.59449999999993
 20
20.375
  0
LWPOLYLINE
  5
28FDB
330
28FD1
100
AcDbEntity
  8
Pel_Muntin_AS
100
AcDbPolyline
 90
        4
 70
     1
 43
0.0
 10
42.37499999999989
 20
12.06200000000001
 10
42.37499999999989
 20
4.625
 10
33.59449999999993
 20
4.625
 10
33.59449999999993
 20
12.06200000000001
  0
LWPOLYLINE
  5
2A889
330
28FD1
100
AcDbEntity
  8
Pel_Hinging
 48
6.0
100
AcDbPolyline
 90
        3
 70
     0
 43
0.0
 10
1.0
 20
24.0
 10
23.5
 20
1.0
 10
46.0
 20
24.0
  0
LWPOLYLINE
  5
2A8C4
330
28FD1
100
AcDbEntity
  8
Pel_Muntin_AS
100
AcDbPolyline
 90
        4
 70
     1
 43
0.0
 10
32.71849999999995
 20
20.375
 10
32.71849999999995
 20
12.93799999999999
 10
23.93799999999993
 20
12.93799999999999
 10
23.93799999999993
 20
20.375
  0
LWPOLYLINE
  5
2A8C5
330
28FD1
100
AcDbEntity
  8
Pel_Muntin_AS
100
AcDbPolyline
 90
        4
 70
     1
 43
0.0
 10
32.71849999999995
 20
12.06200000000001
 10
32.71849999999995
 20
4.625
 10
23.93799999999993
 20
4.625
 10
23.93799999999993
 20
12.06200000000001
  0
ENDBLK
  5
28FDF
330
28FD1
100
AcDbEntity
  8
0
100
AcDbBlockEnd
  0
BLOCK
  5
28FF0
330
28FE1
100
AcDbEntity
  8
0
100
AcDbBlockBegin
  2
ASPCHP5325T
 70
     0
 10
0.0
 20
0.0
 30
0.0
  3
ASPCHP5325T
  1

  0
LWPOLYLINE
  5
28FE2
330
28FE1
100
AcDbEntity
  8
Pel_Frame_Outside
100
AcDbPolyline
 90
        4
 70
     1
 43
0.0
 10
0.0
 20
0.0
 10
0.0000000000004547
 20
25.0
 10
53.00000000000046
 20
24.99999999999898
 10
53.0
 20
-0.0000000000010232
  0
LWPOLYLINE
  5
28FE3
330
28FE1
100
AcDbEntity
  8
Pel_Sash_Outside
100
AcDbPolyline
 90
        4
 70
     1
 43
0.0
 10
52.0
 20
0.9999999999992041
 10
52.00000000000045
 20
23.99999999999955
 10
1.000000000000341
 20
24.00000000000046
 10
1.0
 20
1.000000000000113
  0
LWPOLYLINE
  5
28FE4
330
28FE1
100
AcDbEntity
  8
Pel_Sash_Inside
100
AcDbPolyline
 90
        4
 70
     1
 43
0.0
 10
48.37500000000034
 20
20.37499999999909
 10
4.625000000000454
 20
20.37499999999988
 10
4.625000000000113
 20
4.624999999999886
 10
48.375
 20
4.62499999999909
  0
LWPOLYLINE
  5
28FE6
330
28FE1
100
AcDbEntity
  8
Pel_Muntin_AS
100
AcDbPolyline
 90
        4
 70
     1
 43
0.0
 10
14.90550000000053
 20
20.37499999999977
 10
14.9055000000003
 20
12.93799999999976
 10
4.625000000000227
 20
12.93799999999987
 10
4.625000000000454
 20
20.37499999999988
  0
LWPOLYLINE
  5
28FE7
330
28FE1
100
AcDbEntity
  8
Pel_Muntin_AS
100
AcDbPolyline
 90
        4
 70
     1
 43
0.0
 10
14.9055000000003
 20
12.06199999999978
 10
14.90550000000019
 20
4.624999999999772
 10
4.625000000000113
 20
4.624999999999886
 10
4.625000000000227
 20
12.0619999999999
  0
LWPOLYLINE
  5
28FE8
330
28FE1
100
AcDbEntity
  8
Pel_Muntin_AS
100
AcDbPolyline
 90
        4
 70
     1
 43
0.0
 10
26.06200000000047
 20
20.37499999999955
 10
26.06200000000024
 20
12.93799999999953
 10
15.78150000000028
 20
12.93799999999976
 10
15.7815000000005
 20
20.37499999999977
  0
LWPOLYLINE
  5
28FE9
330
28FE1
100
AcDbEntity
  8
Pel_Muntin_AS
100
AcDbPolyline
 90
        4
 70
     1
 43
0.0
 10
26.06200000000024
 20
12.06199999999955
 10
26.06200000000013
 20
4.624999999999545
 10
15.78150000000016
 20
4.624999999999772
 10
15.78150000000028
 20
12.06199999999978
  0
LWPOLYLINE
  5
28FEA
330
28FE1
100
AcDbEntity
  8
Pel_Muntin_AS
100
AcDbPolyline
 90
        4
 70
     1
 43
0.0
 10
48.37500000000034
 20
20.37499999999909
 10
48.37500000000023
 20
12.93799999999908
 10
38.09450000000027
 20
12.93799999999931
 10
38.09450000000038
 20
20.37499999999932
  0
LWPOLYLINE
  5
28FEB
330
28FE1
100
AcDbEntity
  8
Pel_Muntin_AS
100
AcDbPolyline
 90
        4
 70
     1
 43
0.0
 10
48.37500000000023
 20
12.0619999999991
 10
48.375
 20
4.62499999999909
 10
38.09450000000015
 20
4.624999999999317
 10
38.09450000000027
 20
12.06199999999933
  0
LWPOLYLINE
  5
28FEC
330
28FE1
100
AcDbEntity
  8
Pel_Muntin_AS
100
AcDbPolyline
 90
        4
 70
     1
 43
0.0
 10
37.21850000000041
 20
20.37499999999932
 10
37.21850000000018
 20
12.93799999999931
 10
26.93800000000022
 20
12.93799999999953
 10
26.93800000000044
 20
20.37499999999955
  0
LWPOLYLINE
  5
28FED
330
28FE1
100
AcDbEntity
  8
Pel_Muntin_AS
100
AcDbPolyline
 90
        4
 70
     1
 43
0.0
 10
37.21850000000018
 20
12.06199999999933
 10
37.21850000000006
 20
4.624999999999317
 10
26.9380000000001
 20
4.624999999999545
 10
26.93800000000022
 20
12.06199999999955
  0
LWPOLYLINE
  5
2A86B
330
28FE1
100
AcDbEntity
  8
Pel_Hinging
 48
6.0
100
AcDbPolyline
 90
        3
 70
     0
 43
0.0
 10
1.000000000000341
 20
24.00000000000046
 10
26.5
 20
0.9999999999996589
 10
52.00000000000045
 20
23.99999999999955
  0
ENDBLK
  5
28FF1
330
28FE1
100
AcDbEntity
  8
0
100
AcDbBlockEnd
  0
BLOCK
  5
2916D
330
2915A
100
AcDbEntity
  8
0
100
AcDbBlockBegin
  2
ASPCHP5329T
 70
     0
 10
0.0
 20
0.0
 30
0.0
  3
ASPCHP5329T
  1

  0
LWPOLYLINE
  5
2915B
330
2915A
100
AcDbEntity
  8
Pel_Frame_Outside
100
AcDbPolyline
 90
        4
 70
     1
 43
0.0
 10
0.0
 20
0.0
 10
0.0
 20
29.0
 10
52.99999999999989
 20
29.0
 10
52.99999999999989
 20
0.0
  0
LWPOLYLINE
  5
2915C
330
2915A
100
AcDbEntity
  8
Pel_Sash_Outside
100
AcDbPolyline
 90
        4
 70
     1
 43
0.0
 10
52.0
 20
1.0
 10
52.0
 20
28.0
 10
1.0
 20
28.0
 10
1.0
 20
1.0
  0
LWPOLYLINE
  5
2915D
330
2915A
100
AcDbEntity
  8
Pel_Sash_Inside
100
AcDbPolyline
 90
        4
 70
     1
 43
0.0
 10
48.37499999999988
 20
24.375
 10
4.625
 20
24.375
 10
4.625
 20
4.625
 10
48.37499999999988
 20
4.625
  0
LWPOLYLINE
  5
2915F
330
2915A
100
AcDbEntity
  8
Pel_Muntin_AS
100
AcDbPolyline
 90
        4
 70
     1
 43
0.0
 10
14.90550000000007
 20
24.375
 10
14.90550000000007
 20
14.93799499999989
 10
4.625
 20
14.93800499999986
 10
4.625
 20
24.37500999999997
  0
LWPOLYLINE
  5
29160
330
2915A
100
AcDbEntity
  8
Pel_Muntin_AS
100
AcDbPolyline
 90
        4
 70
     1
 43
0.0
 10
14.90550000000007
 20
14.06199499999991
 10
14.90550000000007
 20
4.624990000000025
 10
4.625
 20
4.625
 10
4.625
 20
14.06200499999988
  0
LWPOLYLINE
  5
29161
330
2915A
100
AcDbEntity
  8
Pel_Muntin_AS
100
AcDbPolyline
 90
        4
 70
     1
 43
0.0
 10
26.06200999999999
 20
24.375
 10
26.06200999999999
 20
14.93799499999989
 10
15.78150000000005
 20
14.93799499999989
 10
15.78150000000005
 20
24.375
  0
LWPOLYLINE
  5
29162
330
2915A
100
AcDbEntity
  8
Pel_Muntin_AS
100
AcDbPolyline
 90
        4
 70
     1
 43
0.0
 10
26.06200999999999
 20
14.06199499999991
 10
26.06200999999999
 20
4.624990000000025
 10
15.78150000000005
 20
4.624990000000025
 10
15.78150000000005
 20
14.06199499999991
  0
LWPOLYLINE
  5
29166
330
2915A
100
AcDbEntity
  8
Pel_Muntin_AS
100
AcDbPolyline
 90
        4
 70
     1
 43
0.0
 10
48.37499999999988
 20
24.37500999999997
 10
48.37499999999988
 20
14.93800499999986
 10
38.09449999999993
 20
14.93799499999989
 10
38.09449999999993
 20
24.375
  0
LWPOLYLINE
  5
29167
330
2915A
100
AcDbEntity
  8
Pel_Muntin_AS
100
AcDbPolyline
 90
        4
 70
     1
 43
0.0
 10
48.37499999999988
 20
14.06201499999986
 10
48.37499999999988
 20
4.625
 10
38.09449999999993
 20
4.624990000000025
 10
38.09449999999993
 20
14.06200499999988
  0
LWPOLYLINE
  5
29168
330
2915A
100
AcDbEntity
  8
Pel_Muntin_AS
100
AcDbPolyline
 90
        4
 70
     1
 43
0.0
 10
37.21851000000004
 20
24.375
 10
37.21851000000004
 20
14.93799499999989
 10
26.93799999999999
 20
14.93799499999989
 10
26.93799999999999
 20
24.375
  0
LWPOLYLINE
  5
29169
330
2915A
100
AcDbEntity
  8
Pel_Muntin_AS
100
AcDbPolyline
 90
        4
 70
     1
 43
0.0
 10
37.21851000000004
 20
14.06199499999991
 10
37.21851000000004
 20
4.624990000000025
 10
26.93799999999999
 20
4.624990000000025
 10
26.93799999999999
 20
14.06199499999991
  0
LWPOLYLINE
  5
2A53A
330
2915A
100
AcDbEntity
  8
Pel_Hinging
 48
6.0
100
AcDbPolyline
 90
        3
 70
     0
 43
0.0
 10
1.0
 20
28.0
 10
26.49999999999989
 20
1.0
 10
52.0
 20
28.0
  0
ENDBLK
  5
2916E
330
2915A
100
AcDbEntity
  8
0
100
AcDbBlockEnd
  0
BLOCK
  5
29196
330
29186
100
AcDbEntity
  8
0
100
AcDbBlockBegin
  2
ASPCHP4729T
 70
     0
 10
0.0
 20
0.0
 30
0.0
  3
ASPCHP4729T
  1

  0
LWPOLYLINE
  5
29187
330
29186
100
AcDbEntity
  8
Pel_Frame_Outside
100
AcDbPolyline
 90
        4
 70
     1
 43
0.0
 10
-0.0000000000000568
 20
0.0
 10
-0.0000000000000568
 20
29.0
 10
46.99999999999988
 20
29.0
 10
46.99999999999988
 20
0.0
  0
LWPOLYLINE
  5
29188
330
29186
100
AcDbEntity
  8
Pel_Sash_Outside
100
AcDbPolyline
 90
        4
 70
     1
 43
0.0
 10
46.0
 20
1.0
 10
46.0
 20
28.0
 10
1.0
 20
28.0
 10
1.0
 20
1.0
  0
LWPOLYLINE
  5
29189
330
29186
100
AcDbEntity
  8
Pel_Sash_Inside
100
AcDbPolyline
 90
        4
 70
     1
 43
0.0
 10
42.37499999999989
 20
24.375
 10
4.624999999999943
 20
24.375
 10
4.624999999999943
 20
4.625
 10
42.37499999999989
 20
4.625
  0
LWPOLYLINE
  5
2918B
330
29186
100
AcDbEntity
  8
Pel_Muntin_AS
100
AcDbPolyline
 90
        4
 70
     1
 43
0.0
 10
13.40549999999996
 20
24.3750050000001
 10
13.40549999999996
 20
14.93800499999986
 10
4.624999999999943
 20
14.93800499999986
 10
4.624999999999943
 20
24.3750050000001
  0
LWPOLYLINE
  5
2918C
330
29186
100
AcDbEntity
  8
Pel_Muntin_AS
100
AcDbPolyline
 90
        4
 70
     1
 43
0.0
 10
13.40549999999996
 20
14.06200499999988
 10
13.40549999999996
 20
4.625
 10
4.624999999999943
 20
4.625
 10
4.624999999999943
 20
14.06200499999988
  0
LWPOLYLINE
  5
2918D
330
29186
100
AcDbEntity
  8
Pel_Muntin_AS
100
AcDbPolyline
 90
        4
 70
     1
 43
0.0
 10
23.06199999999996
 20
24.37499500000013
 10
23.06199999999996
 20
14.93799499999989
 10
14.28149999999994
 20
14.93800499999986
 10
14.28149999999994
 20
24.3750050000001
  0
LWPOLYLINE
  5
2918E
330
29186
100
AcDbEntity
  8
Pel_Muntin_AS
100
AcDbPolyline
 90
        4
 70
     1
 43
0.0
 10
23.06199999999996
 20
14.06199499999991
 10
23.06199999999996
 20
4.624990000000025
 10
14.28149999999994
 20
4.625
 10
14.28149999999994
 20
14.06200499999988
  0
LWPOLYLINE
  5
29192
330
29186
100
AcDbEntity
  8
Pel_Muntin_AS
100
AcDbPolyline
 90
        4
 70
     1
 43
0.0
 10
42.37499999999989
 20
24.3750050000001
 10
42.37499999999989
 20
14.93800499999986
 10
33.59449999999993
 20
14.93799499999989
 10
33.59449999999993
 20
24.37499500000013
  0
LWPOLYLINE
  5
29193
330
29186
100
AcDbEntity
  8
Pel_Muntin_AS
100
AcDbPolyline
 90
        4
 70
     1
 43
0.0
 10
42.37499999999989
 20
14.06201499999986
 10
42.37499999999989
 20
4.625
 10
33.59449999999993
 20
4.624990000000025
 10
33.59449999999993
 20
14.06200499999988
  0
LWPOLYLINE
  5
2A519
330
29186
100
AcDbEntity
  8
Pel_Hinging
 48
6.0
100
AcDbPolyline
 90
        3
 70
     0
 43
0.0
 10
1.000000000000056
 20
28.0
 10
23.49999999999988
 20
1.0
 10
46.0
 20
28.0
  0
LWPOLYLINE
  5
2A814
330
29186
100
AcDbEntity
  8
Pel_Muntin_AS
100
AcDbPolyline
 90
        4
 70
     1
 43
0.0
 10
32.71849999999984
 20
24.3750050000001
 10
32.71849999999984
 20
14.93800499999986
 10
23.93799999999993
 20
14.93799499999989
 10
23.93799999999993
 20
24.37499500000013
  0
LWPOLYLINE
  5
2A815
330
29186
100
AcDbEntity
  8
Pel_Muntin_AS
100
AcDbPolyline
 90
        4
 70
     1
 43
0.0
 10
32.71849999999984
 20
14.06201499999986
 10
32.71849999999984
 20
4.625
 10
23.93799999999993
 20
4.624990000000025
 10
23.93799999999993
 20
14.06200499999988
  0
ENDBLK
  5
29197
330
29186
100
AcDbEntity
  8
0
100
AcDbBlockEnd
  0
BLOCK
  5
291BF
330
291AF
100
AcDbEntity
  8
0
100
AcDbBlockBegin
  2
ASPCHP4129T
 70
     0
 10
0.0
 20
0.0
 30
0.0
  3
ASPCHP4129T
  1

  0
LWPOLYLINE
  5
291B0
330
291AF
100
AcDbEntity
  8
Pel_Frame_Outside
100
AcDbPolyline
 90
        4
 70
     1
 43
0.0
 10
0.0
 20
0.0
 10
0.0
 20
29.0
 10
41.0
 20
29.0
 10
41.0
 20
0.0
  0
LWPOLYLINE
  5
291B1
330
291AF
100
AcDbEntity
  8
Pel_Sash_Outside
100
AcDbPolyline
 90
        4
 70
     1
 43
0.0
 10
40.0
 20
1.0
 10
40.0
 20
28.0
 10
1.0
 20
28.0
 10
1.0
 20
1.0
  0
LWPOLYLINE
  5
291B2
330
291AF
100
AcDbEntity
  8
Pel_Sash_Inside
100
AcDbPolyline
 90
        4
 70
     1
 43
0.0
 10
36.375
 20
24.375
 10
4.625
 20
24.375
 10
4.625
 20
4.625
 10
36.375
 20
4.625
  0
LWPOLYLINE
  5
291B4
330
291AF
100
AcDbEntity
  8
Pel_Muntin_AS
100
AcDbPolyline
 90
        4
 70
     1
 43
0.0
 10
14.62432999999998
 20
24.37500499999999
 10
14.62432999999998
 20
14.93800499999997
 10
4.625
 20
14.93800499999997
 10
4.625
 20
24.37500499999999
  0
LWPOLYLINE
  5
291B5
330
291AF
100
AcDbEntity
  8
Pel_Muntin_AS
100
AcDbPolyline
 90
        4
 70
     1
 43
0.0
 10
14.62432999999998
 20
14.06200499999988
 10
14.62432999999998
 20
4.625
 10
4.625
 20
4.625
 10
4.625
 20
14.06200499999988
  0
LWPOLYLINE
  5
291B6
330
291AF
100
AcDbEntity
  8
Pel_Muntin_AS
100
AcDbPolyline
 90
        4
 70
     1
 43
0.0
 10
25.49967000000004
 20
24.37499500000001
 10
25.49967000000004
 20
14.93799499999989
 10
15.50032999999996
 20
14.93800499999997
 10
15.50032999999996
 20
24.37500499999999
  0
LWPOLYLINE
  5
291B7
330
291AF
100
AcDbEntity
  8
Pel_Muntin_AS
100
AcDbPolyline
 90
        4
 70
     1
 43
0.0
 10
25.49967000000004
 20
14.06199499999991
 10
25.49967000000004
 20
4.624990000000025
 10
15.50032999999996
 20
4.625
 10
15.50032999999996
 20
14.06200499999988
  0
LWPOLYLINE
  5
291BB
330
291AF
100
AcDbEntity
  8
Pel_Muntin_AS
100
AcDbPolyline
 90
        4
 70
     1
 43
0.0
 10
36.375
 20
24.37500499999999
 10
36.375
 20
14.93800499999997
 10
26.37567000000001
 20
14.93799499999989
 10
26.37567000000001
 20
24.37499500000001
  0
LWPOLYLINE
  5
291BC
330
291AF
100
AcDbEntity
  8
Pel_Muntin_AS
100
AcDbPolyline
 90
        4
 70
     1
 43
0.0
 10
36.375
 20
14.06201499999997
 10
36.375
 20
4.625
 10
26.37567000000001
 20
4.624990000000025
 10
26.37567000000001
 20
14.06200499999988
  0
LWPOLYLINE
  5
2A4FD
330
291AF
100
AcDbEntity
  8
Pel_Hinging
 48
6.0
100
AcDbPolyline
 90
        3
 70
     0
 43
0.0
 10
1.0
 20
28.0
 10
20.5
 20
1.0
 10
40.0
 20
28.0
  0
ENDBLK
  5
291C0
330
291AF
100
AcDbEntity
  8
0
100
AcDbBlockEnd
  0
BLOCK
  5
291E8
330
291D8
100
AcDbEntity
  8
0
100
AcDbBlockBegin
  2
ASPCHP3529T
 70
     0
 10
0.0
 20
0.0
 30
0.0
  3
ASPCHP3529T
  1

  0
LWPOLYLINE
  5
291D9
330
291D8
100
AcDbEntity
  8
Pel_Frame_Outside
100
AcDbPolyline
 90
        4
 70
     1
 43
0.0
 10
0.0000000000000568
 20
0.0
 10
0.0000000000000568
 20
29.0
 10
35.00000000000006
 20
29.0
 10
35.00000000000006
 20
0.0
  0
LWPOLYLINE
  5
291DA
330
291D8
100
AcDbEntity
  8
Pel_Sash_Outside
100
AcDbPolyline
 90
        4
 70
     1
 43
0.0
 10
34.0
 20
1.0
 10
34.0
 20
28.0
 10
1.0
 20
28.0
 10
1.0
 20
1.0
  0
LWPOLYLINE
  5
291DB
330
291D8
100
AcDbEntity
  8
Pel_Sash_Inside
100
AcDbPolyline
 90
        4
 70
     1
 43
0.0
 10
30.37500000000006
 20
24.375
 10
4.625000000000056
 20
24.375
 10
4.625000000000056
 20
4.625
 10
30.37500000000006
 20
4.625
  0
LWPOLYLINE
  5
291DD
330
291D8
100
AcDbEntity
  8
Pel_Muntin_AS
100
AcDbPolyline
 90
        4
 70
     1
 43
0.0
 10
12.62433000000004
 20
24.375
 10
12.62433000000004
 20
14.93799999999999
 10
4.625000000000056
 20
14.93799999999999
 10
4.625000000000056
 20
24.375
  0
LWPOLYLINE
  5
291DE
330
291D8
100
AcDbEntity
  8
Pel_Muntin_AS
100
AcDbPolyline
 90
        4
 70
     1
 43
0.0
 10
12.62433000000004
 20
14.0619999999999
 10
12.62433000000004
 20
4.625
 10
4.625000000000056
 20
4.625
 10
4.625000000000056
 20
14.0619999999999
  0
LWPOLYLINE
  5
291DF
330
291D8
100
AcDbEntity
  8
Pel_Muntin_AS
100
AcDbPolyline
 90
        4
 70
     1
 43
0.0
 10
21.49967000000009
 20
24.375
 10
21.49967000000009
 20
14.93799999999999
 10
13.50033000000002
 20
14.93799999999999
 10
13.50033000000002
 20
24.375
  0
LWPOLYLINE
  5
291E0
330
291D8
100
AcDbEntity
  8
Pel_Muntin_AS
100
AcDbPolyline
 90
        4
 70
     1
 43
0.0
 10
21.49967000000009
 20
14.0619999999999
 10
21.49967000000009
 20
4.625
 10
13.50033000000002
 20
4.625
 10
13.50033000000002
 20
14.0619999999999
  0
LWPOLYLINE
  5
291E4
330
291D8
100
AcDbEntity
  8
Pel_Muntin_AS
100
AcDbPolyline
 90
        4
 70
     1
 43
0.0
 10
30.37500000000006
 20
24.375
 10
30.37500000000006
 20
14.93799999999999
 10
22.37567000000007
 20
14.93799999999999
 10
22.37567000000007
 20
24.375
  0
LWPOLYLINE
  5
291E5
330
291D8
100
AcDbEntity
  8
Pel_Muntin_AS
100
AcDbPolyline
 90
        4
 70
     1
 43
0.0
 10
30.37500000000006
 20
14.06200999999998
 10
30.37500000000006
 20
4.625
 10
22.37567000000007
 20
4.625
 10
22.37567000000007
 20
14.06200999999998
  0
LWPOLYLINE
  5
2A4AA
330
291D8
100
AcDbEntity
  8
Pel_Hinging
 48
6.0
100
AcDbPolyline
 90
        3
 70
     0
 43
0.0
 10
34.0
 20
28.0
 10
17.50000000000005
 20
1.0
 10
1.0
 20
28.0
  0
ENDBLK
  5
291E9
330
291D8
100
AcDbEntity
  8
0
100
AcDbBlockEnd
  0
BLOCK
  5
2A2F9
330
2A2F8
100
AcDbEntity
  8
0
100
AcDbBlockBegin
  2
ASPCHP2121T
 70
     0
 10
0.0
 20
0.0
 30
0.0
  3
ASPCHP2121T
  1

  0
LWPOLYLINE
  5
2A2FB
330
2A2F8
100
AcDbEntity
  8
Pel_Hinging
 48
6.0
100
AcDbPolyline
 90
        3
 70
     0
 43
0.0
 10
0.9999999999999573
 20
20.0
 10
10.49999999999996
 20
1.0
 10
19.99999999999996
 20
20.0
  0
LWPOLYLINE
  5
2A2FC
330
2A2F8
100
AcDbEntity
  8
Pel_Frame_Outside
100
AcDbPolyline
 90
        4
 70
     1
 43
0.0
 10
-0.0000000000000142
 20
0.0
 10
20.99999999999996
 20
0.0
 10
20.99999999999996
 20
21.0
 10
-0.0000000000000426
 20
21.0
  0
LWPOLYLINE
  5
2A2FD
330
2A2F8
100
AcDbEntity
  8
Pel_Sash_Outside
100
AcDbPolyline
 90
        4
 70
     1
 43
0.0
 10
0.9999999999999573
 20
20.0
 10
19.99999999999996
 20
20.0
 10
19.99999999999996
 20
1.0
 10
0.9999999999999573
 20
1.0
  0
LWPOLYLINE
  5
2A2FE
330
2A2F8
100
AcDbEntity
  8
Pel_Sash_Inside
100
AcDbPolyline
 90
        4
 70
     1
 43
0.0
 10
16.37499999999995
 20
16.375
 10
16.37499999999995
 20
4.625
 10
4.624999999999985
 20
4.625
 10
4.624999999999957
 20
16.375
  0
LWPOLYLINE
  5
2A2FF
330
2A2F8
100
AcDbEntity
  8
Pel_Muntin_AS
100
AcDbPolyline
 90
        4
 70
     1
 43
0.0
 10
16.37499999999993
 20
10.06200000000001
 10
10.93799999999989
 20
10.06200000000001
 10
10.93799999999994
 20
4.625
 10
16.37499999999995
 20
4.625
  0
LWPOLYLINE
  5
2A300
330
2A2F8
100
AcDbEntity
  8
Pel_Muntin_AS
100
AcDbPolyline
 90
        4
 70
     1
 43
0.0
 10
10.06199999999991
 20
10.06200000000001
 10
4.624999999999957
 20
10.06200000000001
 10
4.624999999999985
 20
4.625
 10
10.06199999999997
 20
4.625
  0
LWPOLYLINE
  5
2A301
330
2A2F8
100
AcDbEntity
  8
Pel_Muntin_AS
100
AcDbPolyline
 90
        4
 70
     1
 43
0.0
 10
10.06199999999997
 20
16.37500000000011
 10
4.624999999999985
 20
16.37500000000011
 10
4.624999999999957
 20
10.93799999999998
 10
10.06199999999991
 20
10.93799999999998
  0
LWPOLYLINE
  5
2A302
330
2A2F8
100
AcDbEntity
  8
Pel_Muntin_AS
100
AcDbPolyline
 90
        4
 70
     1
 43
0.0
 10
16.37499999999995
 20
16.37500000000011
 10
10.93799999999994
 20
16.37500000000011
 10
10.93799999999989
 20
10.93799999999998
 10
16.37499999999993
 20
10.93799999999998
  0
ENDBLK
  5
2A2FA
330
2A2F8
100
AcDbEntity
  8
0
100
AcDbBlockEnd
  0
BLOCK
  5
2A3C9
330
2A3C8
100
AcDbEntity
  8
0
100
AcDbBlockBegin
  2
ASPCHP2323T
 70
     0
 10
0.0
 20
0.0
 30
0.0
  3
ASPCHP2323T
  1

  0
LWPOLYLINE
  5
2A3CB
330
2A3C8
100
AcDbEntity
  8
Pel_Hinging
 48
6.0
100
AcDbPolyline
 90
        3
 70
     0
 43
0.0
 10
1.0
 20
22.0
 10
11.5
 20
1.0
 10
22.00000000000003
 20
22.0
  0
LWPOLYLINE
  5
2A3CC
330
2A3C8
100
AcDbEntity
  8
Pel_Frame_Outside
100
AcDbPolyline
 90
        4
 70
     1
 43
0.0
 10
0.0
 20
0.0
 10
23.00000000000003
 20
0.0
 10
23.00000000000003
 20
23.0
 10
0.0000000000000284
 20
23.0
  0
LWPOLYLINE
  5
2A3CD
330
2A3C8
100
AcDbEntity
  8
Pel_Sash_Outside
100
AcDbPolyline
 90
        4
 70
     1
 43
0.0
 10
1.0
 20
22.0
 10
22.00000000000003
 20
22.0
 10
22.00000000000003
 20
1.0
 10
1.0
 20
1.0
  0
LWPOLYLINE
  5
2A3CE
330
2A3C8
100
AcDbEntity
  8
Pel_Sash_Inside
100
AcDbPolyline
 90
        4
 70
     1
 43
0.0
 10
18.37500000000003
 20
18.37500000000011
 10
18.37500000000003
 20
4.625
 10
4.625
 20
4.625
 10
4.625
 20
18.37500000000011
  0
LWPOLYLINE
  5
2A3CF
330
2A3C8
100
AcDbEntity
  8
Pel_Muntin_AS
100
AcDbPolyline
 90
        4
 70
     1
 43
0.0
 10
18.37499999999997
 20
11.06200000000001
 10
11.93799999999999
 20
11.06200000000001
 10
11.93800000000004
 20
4.625
 10
18.37500000000003
 20
4.625
  0
LWPOLYLINE
  5
2A3D0
330
2A3C8
100
AcDbEntity
  8
Pel_Muntin_AS
100
AcDbPolyline
 90
        4
 70
     1
 43
0.0
 10
11.06200000000001
 20
11.06200000000001
 10
4.625
 20
11.06200000000001
 10
4.625
 20
4.625
 10
11.06200000000007
 20
4.625
  0
LWPOLYLINE
  5
2A3D1
330
2A3C8
100
AcDbEntity
  8
Pel_Muntin_AS
100
AcDbPolyline
 90
        4
 70
     1
 43
0.0
 10
11.06200000000007
 20
18.37500000000023
 10
4.625
 20
18.37500000000023
 10
4.625
 20
11.93799999999999
 10
11.06200000000001
 20
11.93799999999999
  0
LWPOLYLINE
  5
2A3D2
330
2A3C8
100
AcDbEntity
  8
Pel_Muntin_AS
100
AcDbPolyline
 90
        4
 70
     1
 43
0.0
 10
18.37500000000003
 20
18.37500000000023
 10
11.93800000000004
 20
18.37500000000023
 10
11.93799999999999
 20
11.93799999999999
 10
18.37499999999997
 20
11.93799999999999
  0
ENDBLK
  5
2A3CA
330
2A3C8
100
AcDbEntity
  8
0
100
AcDbBlockEnd
  0
BLOCK
  5
2A3E2
330
2A3E1
100
AcDbEntity
  8
0
100
AcDbBlockBegin
  2
ASPCHP2929T
 70
     0
 10
0.0
 20
0.0
 30
0.0
  3
ASPCHP2929T
  1

  0
LWPOLYLINE
  5
2A3E4
330
2A3E1
100
AcDbEntity
  8
Pel_Hinging
 48
6.0
100
AcDbPolyline
 90
        3
 70
     0
 43
0.0
 10
1.0
 20
28.0
 10
14.5
 20
1.0
 10
28.00000000000003
 20
28.0
  0
LWPOLYLINE
  5
2A3E5
330
2A3E1
100
AcDbEntity
  8
Pel_Frame_Outside
100
AcDbPolyline
 90
        4
 70
     1
 43
0.0
 10
0.0
 20
0.0
 10
29.00000000000003
 20
0.0
 10
29.00000000000003
 20
29.0
 10
0.0000000000000284
 20
29.0
  0
LWPOLYLINE
  5
2A3E6
330
2A3E1
100
AcDbEntity
  8
Pel_Sash_Outside
100
AcDbPolyline
 90
        4
 70
     1
 43
0.0
 10
1.0
 20
28.0
 10
28.00000000000003
 20
28.0
 10
28.00000000000003
 20
1.0
 10
1.0
 20
1.0
  0
LWPOLYLINE
  5
2A3E7
330
2A3E1
100
AcDbEntity
  8
Pel_Sash_Inside
100
AcDbPolyline
 90
        4
 70
     1
 43
0.0
 10
24.45592414991754
 20
24.375
 10
24.45592414991754
 20
4.625
 10
4.625
 20
4.625
 10
4.625
 20
24.375
  0
LWPOLYLINE
  5
2A3E8
330
2A3E1
100
AcDbEntity
  8
Pel_Muntin_AS
100
AcDbPolyline
 90
        4
 70
     1
 43
0.0
 10
24.45592414991748
 20
14.0619999999999
 10
14.93799999999999
 20
14.0619999999999
 10
14.93800000000004
 20
4.625
 10
24.45592414991754
 20
4.625
  0
LWPOLYLINE
  5
2A3E9
330
2A3E1
100
AcDbEntity
  8
Pel_Muntin_AS
100
AcDbPolyline
 90
        4
 70
     1
 43
0.0
 10
14.06200000000001
 20
14.0619999999999
 10
4.625
 20
14.0619999999999
 10
4.625
 20
4.625
 10
14.06200000000007
 20
4.625
  0
LWPOLYLINE
  5
2A3EA
330
2A3E1
100
AcDbEntity
  8
Pel_Muntin_AS
100
AcDbPolyline
 90
        4
 70
     1
 43
0.0
 10
14.06200000000007
 20
24.37500000000011
 10
4.625
 20
24.37500000000011
 10
4.625
 20
14.93799999999987
 10
14.06200000000001
 20
14.93799999999987
  0
LWPOLYLINE
  5
2A3EB
330
2A3E1
100
AcDbEntity
  8
Pel_Muntin_AS
100
AcDbPolyline
 90
        4
 70
     1
 43
0.0
 10
24.45592414991754
 20
24.37500000000011
 10
14.93800000000004
 20
24.37500000000011
 10
14.93799999999999
 20
14.93799999999987
 10
24.45592414991748
 20
14.93799999999987
  0
ENDBLK
  5
2A3E3
330
2A3E1
100
AcDbEntity
  8
0
100
AcDbBlockEnd
  0
BLOCK
  5
2A3EE
330
2A3ED
100
AcDbEntity
  8
0
100
AcDbBlockBegin
  2
ASPCHP2525T
 70
     0
 10
0.0
 20
0.0
 30
0.0
  3
ASPCHP2525T
  1

  0
LWPOLYLINE
  5
2A3F0
330
2A3ED
100
AcDbEntity
  8
Pel_Hinging
 48
6.0
100
AcDbPolyline
 90
        3
 70
     0
 43
0.0
 10
0.9999999999999715
 20
24.0
 10
12.45953792504124
 20
1.0
 10
23.91907585008249
 20
24.0
  0
LWPOLYLINE
  5
2A3F1
330
2A3ED
100
AcDbEntity
  8
Pel_Frame_Outside
100
AcDbPolyline
 90
        4
 70
     1
 43
0.0
 10
-0.0000000000000284
 20
0.0
 10
25.0
 20
0.0
 10
25.0
 20
25.00000000000023
 10
0.0
 20
25.00000000000023
  0
LWPOLYLINE
  5
2A3F2
330
2A3ED
100
AcDbEntity
  8
Pel_Sash_Outside
100
AcDbPolyline
 90
        4
 70
     1
 43
0.0
 10
0.9999999999999715
 20
24.0
 10
23.91907585008249
 20
24.0
 10
23.91907585008249
 20
1.0
 10
0.9999999999999715
 20
1.0
  0
LWPOLYLINE
  5
2A3F3
330
2A3ED
100
AcDbEntity
  8
Pel_Sash_Inside
100
AcDbPolyline
 90
        4
 70
     1
 43
0.0
 10
20.375
 20
20.375
 10
20.375
 20
4.625
 10
4.624999999999971
 20
4.625
 10
4.624999999999971
 20
20.375
  0
LWPOLYLINE
  5
2A3F4
330
2A3ED
100
AcDbEntity
  8
Pel_Muntin_AS
100
AcDbPolyline
 90
        4
 70
     1
 43
0.0
 10
20.37499999999994
 20
12.06200000000001
 10
12.93799999999999
 20
12.06200000000001
 10
12.93800000000004
 20
4.625
 10
20.375
 20
4.625
  0
LWPOLYLINE
  5
2A3F5
330
2A3ED
100
AcDbEntity
  8
Pel_Muntin_AS
100
AcDbPolyline
 90
        4
 70
     1
 43
0.0
 10
12.06200000000001
 20
12.06200000000001
 10
4.624999999999971
 20
12.06200000000001
 10
4.624999999999971
 20
4.625
 10
12.06200000000007
 20
4.625
  0
LWPOLYLINE
  5
2A3F6
330
2A3ED
100
AcDbEntity
  8
Pel_Muntin_AS
100
AcDbPolyline
 90
        4
 70
     1
 43
0.0
 10
12.06200000000007
 20
20.37500000000012
 10
4.624999999999971
 20
20.37500000000012
 10
4.624999999999971
 20
12.93799999999999
 10
12.06200000000001
 20
12.93799999999999
  0
LWPOLYLINE
  5
2A3F7
330
2A3ED
100
AcDbEntity
  8
Pel_Muntin_AS
100
AcDbPolyline
 90
        4
 70
     1
 43
0.0
 10
20.375
 20
20.37500000000012
 10
12.93800000000004
 20
20.37500000000012
 10
12.93799999999999
 20
12.93799999999999
 10
20.37499999999994
 20
12.93799999999999
  0
ENDBLK
  5
2A3EF
330
2A3ED
100
AcDbEntity
  8
0
100
AcDbBlockEnd
  0
ENDSEC
  0
SECTION
  2
ENTITIES
  0
INSERT
  5
28EB9
330
1F
100
AcDbEntity
  8
0
100
AcDbBlockReference
  2
ASPCHP5317T
 10
549.974251627341
 20
745.6829270414496
 30
0.0
  0
INSERT
  5
28F22
330
1F
100
AcDbEntity
  8
0
100
AcDbBlockReference
  2
ASPCHP5321T
 10
549.974251627341
 20
708.6829270414497
 30
0.0
  0
INSERT
  5
28F7A
330
1F
100
AcDbEntity
  8
0
100
AcDbBlockReference
  2
ASPCHP5323T
 10
549.974251627341
 20
669.6829270414498
 30
0.0
  0
INSERT
  5
28FF2
330
1F
100
AcDbEntity
  8
0
100
AcDbBlockReference
  2
ASPCHP5325T
 10
549.974251627341
 20
628.6829270414493
 30
0.0
  0
INSERT
  5
2916F
330
1F
100
AcDbEntity
  8
0
100
AcDbBlockReference
  2
ASPCHP5329T
 10
549.974251627341
 20
583.6829270414494
 30
0.0
  0
INSERT
  5
2A036
330
1F
100
AcDbEntity
  8
0
100
AcDbBlockReference
  2
ASPCHP4717T
 10
482.974251627341
 20
745.6829270414496
 30
0.0
  0
INSERT
  5
2A037
330
1F
100
AcDbEntity
  8
0
100
AcDbBlockReference
  2
ASPCHP3517T
 10
366.9742516273409
 20
745.6829270414496
 30
0.0
  0
INSERT
  5
2A038
330
1F
100
AcDbEntity
  8
0
100
AcDbBlockReference
  2
ASPCHP4117T
 10
421.9742516273409
 20
745.6829270414496
 30
0.0
  0
INSERT
  5
2A039
330
1F
100
AcDbEntity
  8
0
100
AcDbBlockReference
  2
ASPCHP3521T
 10
366.9742516273409
 20
708.6829270414497
 30
0.0
  0
INSERT
  5
2A03A
330
1F
100
AcDbEntity
  8
0
100
AcDbBlockReference
  2
ASPCHP4121T
 10
421.9742516273409
 20
708.6829270414497
 30
0.0
  0
INSERT
  5
2A03B
330
1F
100
AcDbEntity
  8
0
100
AcDbBlockReference
  2
ASPCHP4721T
 10
482.974251627341
 20
708.6829270414497
 30
0.0
  0
INSERT
  5
2A03C
330
1F
100
AcDbEntity
  8
0
100
AcDbBlockReference
  2
ASPCHP3523T
 10
366.9742516273409
 20
669.6829270414498
 30
0.0
  0
INSERT
  5
2A03D
330
1F
100
AcDbEntity
  8
0
100
AcDbBlockReference
  2
ASPCHP4123T
 10
421.9742516273409
 20
669.6829270414498
 30
0.0
  0
INSERT
  5
2A03E
330
1F
100
AcDbEntity
  8
0
100
AcDbBlockReference
  2
ASPCHP4723T
 10
482.974251627341
 20
669.6829270414498
 30
0.0
  0
INSERT
  5
2A03F
330
1F
100
AcDbEntity
  8
0
100
AcDbBlockReference
  2
ASPCHP3525T
 10
366.9742516273409
 20
628.6829270414493
 30
0.0
  0
INSERT
  5
2A040
330
1F
100
AcDbEntity
  8
0
100
AcDbBlockReference
  2
ASPCHP4125T
 10
421.9742516273409
 20
628.6829270414493
 30
0.0
  0
INSERT
  5
2A041
330
1F
100
AcDbEntity
  8
0
100
AcDbBlockReference
  2
ASPCHP4725T
 10
482.974251627341
 20
628.6829270414493
 30
0.0
  0
INSERT
  5
2A042
330
1F
100
AcDbEntity
  8
0
100
AcDbBlockReference
  2
ASPCHP4729T
 10
482.974251627341
 20
583.6829270414494
 30
0.0
  0
INSERT
  5
2A043
330
1F
100
AcDbEntity
  8
0
100
AcDbBlockReference
  2
ASPCHP4129T
 10
421.9742516273409
 20
583.6829270414494
 30
0.0
  0
INSERT
  5
2A044
330
1F
100
AcDbEntity
  8
0
100
AcDbBlockReference
  2
ASPCHP3529T
 10
366.9742516273409
 20
583.6829270414494
 30
0.0
  0
TEXT
  5
2A04A
330
1F
100
AcDbEntity
  8
0
100
AcDbText
 10
562.974251627341
 20
822.6739542977645
 30
0.0
 40
6.0
  1
(1 365)
 72
     4
 11
576.2532420775456
 21
824.8431221013117
 31
0.0
100
AcDbText
  0
TEXT
  5
2A04B
330
1F
100
AcDbEntity
  8
0
100
AcDbText
 10
562.974251627341
 20
812.9239542977645
 30
0.0
 40
6.0
  1
(1 346)
 72
     4
 11
576.2532420775456
 21
815.0931221013117
 31
0.0
100
AcDbText
  0
TEXT
  5
2A04C
330
1F
100
AcDbEntity
  8
0
100
AcDbText
 10
566.7360853100193
 20
779.4800405187742
 30
0.0
 40
7.0
  1
4' 5"
 72
     4
 11
576.202319962134
 21
782.9203542977646
 31
0.0
100
AcDbText
  0
INSERT
  5
2A04D
330
1F
100
AcDbEntity
  8
0
100
AcDbBlockReference
  2
341
 10
574.0873199621338
 20
800.669154919321
 30
0.0
 41
96.0
 42
96.0
 43
96.0
  0
TEXT
  5
2A04E
330
1F
100
AcDbEntity
  8
0
100
AcDbText
 10
566.356760616977
 20
797.2288411403305
 30
0.0
 40
7.0
  1
4' 5
 72
     4
 11
574.0873199621339
 21
800.669154919321
 31
0.0
100
AcDbText
  0
INSERT
  5
2A04F
330
1F
100
AcDbEntity
  8
0
100
AcDbBlockReference
  2
342
 10
503.5665173039404
 20
800.6691549193213
 30
0.0
 41
96.0
 42
96.0
 43
96.0
  0
TEXT
  5
2A050
330
1F
100
AcDbEntity
  8
0
100
AcDbText
 10
432.7242516273409
 20
822.6739542977645
 30
0.0
 40
6.0
  1
(1 060)
 72
     4
 11
446.0032420775455
 21
824.8431221013117
 31
0.0
100
AcDbText
  0
TEXT
  5
2A051
330
1F
100
AcDbEntity
  8
0
100
AcDbText
 10
432.7242516273409
 20
812.9239542977645
 30
0.0
 40
6.0
  1
(1 041)
 72
     4
 11
446.0032420775455
 21
815.0931221013117
 31
0.0
100
AcDbText
  0
TEXT
  5
2A052
330
1F
100
AcDbEntity
  8
0
100
AcDbText
 10
432.8138575451644
 20
779.4681032745723
 30
0.0
 40
7.0
  1
3' 5"
 72
     4
 11
442.280092197279
 21
782.9203542977646
 31
0.0
100
AcDbText
  0
TEXT
  5
2A053
330
1F
100
AcDbEntity
  8
0
100
AcDbText
 10
432.434532852122
 20
797.2169038961287
 30
0.0
 40
7.0
  1
3' 5
 72
     4
 11
440.1650921972788
 21
800.6691549193211
 31
0.0
100
AcDbText
  0
INSERT
  5
2A054
330
1F
100
AcDbEntity
  8
0
100
AcDbBlockReference
  2
341
 10
440.1650921972788
 20
800.6691549193211
 30
0.0
 41
96.0
 42
96.0
 43
96.0
  0
TEXT
  5
2A055
330
1F
100
AcDbEntity
  8
0
100
AcDbText
 10
374.7242516273409
 20
822.6739542977645
 30
0.0
 40
6.0
  1
(908)
 72
     4
 11
384.5080169752263
 21
824.8431221013117
 31
0.0
100
AcDbText
  0
TEXT
  5
2A056
330
1F
100
AcDbEntity
  8
0
100
AcDbText
 10
374.7242516273409
 20
812.9239542977645
 30
0.0
 40
6.0
  1
(889)
 72
     4
 11
384.5080169752263
 21
815.0931221013117
 31
0.0
100
AcDbText
  0
TEXT
  5
2A057
330
1F
100
AcDbEntity
  8
0
100
AcDbText
 10
372.2513355654879
 20
779.5142438252161
 30
0.0
 40
7.0
  1
2' 11"
 72
     4
 11
384.4368744467975
 21
783.026181069418
 31
0.0
100
AcDbText
  0
TEXT
  5
2A058
330
1F
100
AcDbEntity
  8
0
100
AcDbText
 10
371.1166537295883
 20
797.2630444467728
 30
0.0
 40
7.0
  1
2' 11
 72
     4
 11
381.5665173039402
 21
800.7749816909747
 31
0.0
100
AcDbText
  0
TEXT
  5
2A059
330
1F
100
AcDbEntity
  8
0
100
AcDbText
 10
332.4709016091524
 20
779.5489542977645
 30
0.0
 40
6.75
  1
Frame
 72
     4
 11
346.0929172981019
 21
782.8687019103157
 31
0.0
100
AcDbText
  0
LINE
  5
2A05A
330
1F
100
AcDbEntity
  8
0
100
AcDbLine
 10
344.0959016091524
 20
578.4329270414493
 30
0.0
 11
344.0959016091524
 21
774.6739542977645
 31
0.0
  0
LINE
  5
2A05B
330
1F
100
AcDbEntity
  8
0
100
AcDbLine
 10
327.5959016091524
 20
578.4329270414493
 30
0.0
 11
327.5959016091524
 21
791.1739542977645
 31
0.0
  0
LINE
  5
2A05C
330
1F
100
AcDbEntity
  8
0
100
AcDbLine
 10
311.0959016091524
 20
578.4329270414493
 30
0.0
 11
311.0959016091524
 21
807.6739542977644
 31
0.0
  0
TEXT
  5
2A05D
330
1F
100
AcDbEntity
  8
0
100
AcDbText
 10
315.9709016091524
 20
796.0489542977645
 30
0.0
 40
6.75
  1
Opening
 72
     4
 11
333.7967031098346
 21
798.4915702595653
 31
0.0
100
AcDbText
  0
LINE
  5
2A05E
330
1F
100
AcDbEntity
  8
0
100
AcDbLine
 10
311.0959016091524
 20
807.6739542977644
 30
0.0
 11
607.9742516273409
 21
807.6739542977644
 31
0.0
  0
LINE
  5
2A05F
330
1F
100
AcDbEntity
  8
0
100
AcDbLine
 10
327.5959016091524
 20
791.1739542977645
 30
0.0
 11
607.9742516273409
 21
791.1739542977645
 31
0.0
  0
LINE
  5
2A060
330
1F
100
AcDbEntity
  8
0
100
AcDbLine
 10
344.0959016091524
 20
774.6739542977645
 30
0.0
 11
607.9742516273409
 21
774.6739542977645
 31
0.0
  0
TEXT
  5
2A061
330
1F
100
AcDbEntity
  8
0
100
AcDbText
 10
494.2513355654878
 20
779.4681032745722
 30
0.0
 40
7.0
  1
3' 11"
 72
     4
 11
506.4368744467976
 21
782.9203542977645
 31
0.0
100
AcDbText
  0
TEXT
  5
2A062
330
1F
100
AcDbEntity
  8
0
100
AcDbText
 10
493.1166537295885
 20
797.2169038961289
 30
0.0
 40
7.0
  1
3' 11
 72
     4
 11
503.5665173039404
 21
800.6691549193213
 31
0.0
100
AcDbText
  0
TEXT
  5
2A063
330
1F
100
AcDbEntity
  8
0
100
AcDbText
 10
496.7242516273409
 20
812.9239542977645
 30
0.0
 40
6.0
  1
(1 194)
 72
     4
 11
510.0032420775455
 21
815.0931221013117
 31
0.0
100
AcDbText
  0
TEXT
  5
2A064
330
1F
100
AcDbEntity
  8
0
100
AcDbText
 10
496.7242516273409
 20
822.6739542977645
 30
0.0
 40
6.0
  1
(1 213)
 72
     4
 11
510.0032420775455
 21
824.8431221013117
 31
0.0
100
AcDbText
  0
TEXT
  5
2A065
330
1F
100
AcDbEntity
  8
0
100
AcDbText
 10
322.7386986474491
 20
744.4329270414494
 30
0.0
 40
7.0
  1
1' 5
 50
90.0
 72
     4
 11
319.2840601754164
 21
752.1634863866061
 31
0.0
100
AcDbText
  0
TEXT
  5
2A066
330
1F
100
AcDbEntity
  8
0
100
AcDbText
 10
305.8459016091525
 20
744.4329270414494
 30
0.0
 40
6.0
  1
(432)
 50
90.0
 72
     4
 11
303.6767338056054
 21
754.2166923893347
 31
0.0
100
AcDbText
  0
TEXT
  5
2A067
330
1F
100
AcDbEntity
  8
0
100
AcDbText
 10
296.0959016091525
 20
744.5566886676268
 30
0.0
 40
6.0
  1
(451)
 50
90.0
 72
     4
 11
293.9267338056054
 21
754.3404540155123
 31
0.0
100
AcDbText
  0
INSERT
  5
2A068
330
1F
100
AcDbEntity
  8
0
100
AcDbBlockReference
  2
342
 10
319.2267614032472
 20
681.8827906158018
 30
0.0
 41
96.0
 42
96.0
 43
96.0
 50
90.0
  0
TEXT
  5
2A069
330
1F
100
AcDbEntity
  8
0
100
AcDbText
 10
305.8459016091525
 20
709.4329270414497
 30
0.0
 40
6.0
  1
(533)
 50
90.0
 72
     4
 11
303.6767338056054
 21
719.2166923893351
 31
0.0
100
AcDbText
  0
TEXT
  5
2A06A
330
1F
100
AcDbEntity
  8
0
100
AcDbText
 10
296.0959016091525
 20
709.4329270414497
 30
0.0
 40
6.0
  1
(552)
 50
90.0
 72
     4
 11
293.9267338056054
 21
719.2166923893351
 31
0.0
100
AcDbText
  0
TEXT
  5
2A06B
330
1F
100
AcDbEntity
  8
0
100
AcDbText
 10
322.7386986474491
 20
709.4329270414497
 30
0.0
 40
7.0
  1
1' 9
 50
90.0
 72
     4
 11
319.2840601754164
 21
717.1634863866065
 31
0.0
100
AcDbText
  0
TEXT
  5
2A06C
330
1F
100
AcDbEntity
  8
0
100
AcDbText
 10
322.7386986474491
 20
631.4329270414494
 30
0.0
 40
7.0
  1
2' 1
 50
90.0
 72
     4
 11
319.2267614032472
 21
639.1634863866062
 31
0.0
100
AcDbText
  0
TEXT
  5
2A06D
330
1F
100
AcDbEntity
  8
0
100
AcDbText
 10
305.8459016091525
 20
631.4329270414494
 30
0.0
 40
6.0
  1
(635)
 50
90.0
 72
     4
 11
303.6767338056054
 21
641.2166923893347
 31
0.0
100
AcDbText
  0
TEXT
  5
2A06E
330
1F
100
AcDbEntity
  8
0
100
AcDbText
 10
296.0959016091525
 20
631.4329270414494
 30
0.0
 40
6.0
  1
(654)
 50
90.0
 72
     4
 11
293.9267338056054
 21
641.2166923893347
 31
0.0
100
AcDbText
  0
TEXT
  5
2A06F
330
1F
100
AcDbEntity
  8
0
100
AcDbText
 10
322.7386986474491
 20
588.4329270414493
 30
0.0
 40
7.0
  1
2' 5
 50
90.0
 72
     4
 11
319.2840601754164
 21
596.1634863866062
 31
0.0
100
AcDbText
  0
TEXT
  5
2A070
330
1F
100
AcDbEntity
  8
0
100
AcDbText
 10
305.8459016091525
 20
588.4329270414493
 30
0.0
 40
6.0
  1
(737)
 50
90.0
 72
     4
 11
303.6767338056054
 21
598.2166923893347
 31
0.0
100
AcDbText
  0
TEXT
  5
2A071
330
1F
100
AcDbEntity
  8
0
100
AcDbText
 10
296.0959016091525
 20
588.4329270414493
 30
0.0
 40
6.0
  1
(756)
 50
90.0
 72
     4
 11
293.9267338056054
 21
598.2166923893347
 31
0.0
100
AcDbText
  0
TEXT
  5
2A072
330
1F
100
AcDbEntity
  8
0
100
AcDbText
 10
296.0959016091525
 20
671.4329270414498
 30
0.0
 40
6.0
  1
(603)
 50
90.0
 72
     4
 11
293.9267338056054
 21
681.2166923893352
 31
0.0
100
AcDbText
  0
TEXT
  5
2A073
330
1F
100
AcDbEntity
  8
0
100
AcDbText
 10
305.8459016091525
 20
671.4329270414498
 30
0.0
 40
6.0
  1
(584)
 50
90.0
 72
     4
 11
303.6767338056054
 21
681.2166923893352
 31
0.0
100
AcDbText
  0
TEXT
  5
2A074
330
1F
100
AcDbEntity
  8
0
100
AcDbText
 10
322.7386986474491
 20
671.4329270414498
 30
0.0
 40
7.0
  1
1' 11
 50
90.0
 72
     4
 11
319.2267614032472
 21
681.8827906158018
 31
0.0
100
AcDbText
  0
TEXT
  5
2A075
330
1F
100
AcDbEntity
  8
0
100
AcDbText
 10
339.2209016091525
 20
709.4329270414497
 30
0.0
 40
7.0
  1
1' 9"
 50
90.0
 72
     4
 11
335.7662631371197
 21
718.8991616935643
 31
0.0
100
AcDbText
  0
TEXT
  5
2A076
330
1F
100
AcDbEntity
  8
0
100
AcDbText
 10
339.2209016091524
 20
631.4329270414494
 30
0.0
 40
7.0
  1
2' 1"
 50
90.0
 72
     4
 11
335.7089643649505
 21
640.8991616935639
 31
0.0
100
AcDbText
  0
TEXT
  5
2A077
330
1F
100
AcDbEntity
  8
0
100
AcDbText
 10
339.2209016091525
 20
588.4329270414493
 30
0.0
 40
7.0
  1
2' 5"
 50
90.0
 72
     4
 11
335.7662631371197
 21
597.899161693564
 31
0.0
100
AcDbText
  0
TEXT
  5
2A078
330
1F
100
AcDbEntity
  8
0
100
AcDbText
 10
339.2209016091524
 20
671.4329270414498
 30
0.0
 40
7.0
  1
1' 11"
 50
90.0
 72
     4
 11
335.7089643649505
 21
683.6184659227594
 31
0.0
100
AcDbText
  0
TEXT
  5
2A079
330
1F
100
AcDbEntity
  8
0
100
AcDbText
 10
339.2209016091525
 20
744.4329270414494
 30
0.0
 40
7.0
  1
1' 5"
 50
90.0
 72
     4
 11
335.7662631371197
 21
753.8991616935639
 31
0.0
100
AcDbText
  0
MTEXT
  5
2A07A
330
1F
100
AcDbEntity
  8
0
100
AcDbMText
 10
106.8722226269722
 20
705.6829270414501
 30
0.0
 40
6.75
 41
35.0
 71
     2
 72
     5
  1
2121
 73
     1
 44
1.0
1001
ACAD
1000
MTEXTBEGIN
1070
    73
1070
     1
1070
    44
1040
1.0
1070
    74
1070
     0
1000
MTEXTEND
  0
MTEXT
  5
2A07B
330
1F
100
AcDbEntity
  8
0
100
AcDbMText
 10
146.8722226269723
 20
666.6829270414503
 30
0.0
 40
6.75
 41
35.0
 71
     2
 72
     5
  1
2323
 73
     1
 44
1.0
1001
ACAD
1000
MTEXTBEGIN
1070
    73
1070
     1
1070
    44
1040
1.0
1070
    74
1070
     0
1000
MTEXTEND
  0
MTEXT
  5
2A07C
330
1F
100
AcDbEntity
  8
0
100
AcDbMText
 10
188.8722226269722
 20
625.6829270414498
 30
0.0
 40
6.75
 41
35.0
 71
     2
 72
     5
  1
2525
 73
     1
 44
1.0
1001
ACAD
1000
MTEXTBEGIN
1070
    73
1070
     1
1070
    44
1040
1.0
1070
    74
1070
     0
1000
MTEXTEND
  0
MTEXT
  5
2A07D
330
1F
100
AcDbEntity
  8
0
100
AcDbMText
 10
233.8722226269723
 20
580.6829270414498
 30
0.0
 40
6.75
 41
35.0
 71
     2
 72
     5
  1
2929
 73
     1
 44
1.0
1001
ACAD
1000
MTEXTBEGIN
1070
    73
1070
     1
1070
    44
1040
1.0
1070
    74
1070
     0
1000
MTEXTEND
  0
MTEXT
  5
2A07E
330
1F
100
AcDbEntity
  8
0
100
AcDbMText
 10
384.4742516273409
 20
742.6829270414501
 30
0.0
 40
6.75
 41
35.0
 71
     2
 72
     5
  1
3517
 73
     1
 44
1.0
1001
ACAD
1000
MTEXTBEGIN
1070
    73
1070
     1
1070
    44
1040
1.0
1070
    74
1070
     0
1000
MTEXTEND
  0
MTEXT
  5
2A07F
330
1F
100
AcDbEntity
  8
0
100
AcDbMText
 10
384.4742516273409
 20
705.6829270414501
 30
0.0
 40
6.75
 41
35.0
 71
     2
 72
     5
  1
3521
 73
     1
 44
1.0
1001
ACAD
1000
MTEXTBEGIN
1070
    73
1070
     1
1070
    44
1040
1.0
1070
    74
1070
     0
1000
MTEXTEND
  0
MTEXT
  5
2A080
330
1F
100
AcDbEntity
  8
0
100
AcDbMText
 10
384.4742516273409
 20
666.6829270414503
 30
0.0
 40
6.75
 41
35.0
 71
     2
 72
     5
  1
3523
 73
     1
 44
1.0
1001
ACAD
1000
MTEXTBEGIN
1070
    73
1070
     1
1070
    44
1040
1.0
1070
    74
1070
     0
1000
MTEXTEND
  0
MTEXT
  5
2A081
330
1F
100
AcDbEntity
  8
0
100
AcDbMText
 10
384.4742516273409
 20
625.6829270414498
 30
0.0
 40
6.75
 41
35.0
 71
     2
 72
     5
  1
3525
 73
     1
 44
1.0
1001
ACAD
1000
MTEXTBEGIN
1070
    73
1070
     1
1070
    44
1040
1.0
1070
    74
1070
     0
1000
MTEXTEND
  0
MTEXT
  5
2A082
330
1F
100
AcDbEntity
  8
0
100
AcDbMText
 10
384.4742516273409
 20
580.6829270414498
 30
0.0
 40
6.75
 41
35.0
 71
     2
 72
     5
  1
3529
 73
     1
 44
1.0
1001
ACAD
1000
MTEXTBEGIN
1070
    73
1070
     1
1070
    44
1040
1.0
1070
    74
1070
     0
1000
MTEXTEND
  0
MTEXT
  5
2A083
330
1F
100
AcDbEntity
  8
0
100
AcDbMText
 10
442.4742516273409
 20
742.6829270414501
 30
0.0
 40
6.75
 41
35.0
 71
     2
 72
     5
  1
4117
 73
     1
 44
1.0
1001
ACAD
1000
MTEXTBEGIN
1070
    73
1070
     1
1070
    44
1040
1.0
1070
    74
1070
     0
1000
MTEXTEND
  0
MTEXT
  5
2A084
330
1F
100
AcDbEntity
  8
0
100
AcDbMText
 10
442.4742516273409
 20
705.6829270414501
 30
0.0
 40
6.75
 41
35.0
 71
     2
 72
     5
  1
4121
 73
     1
 44
1.0
1001
ACAD
1000
MTEXTBEGIN
1070
    73
1070
     1
1070
    44
1040
1.0
1070
    74
1070
     0
1000
MTEXTEND
  0
MTEXT
  5
2A085
330
1F
100
AcDbEntity
  8
0
100
AcDbMText
 10
442.4742516273409
 20
666.6829270414503
 30
0.0
 40
6.75
 41
35.0
 71
     2
 72
     5
  1
4123
 73
     1
 44
1.0
1001
ACAD
1000
MTEXTBEGIN
1070
    73
1070
     1
1070
    44
1040
1.0
1070
    74
1070
     0
1000
MTEXTEND
  0
MTEXT
  5
2A086
330
1F
100
AcDbEntity
  8
0
100
AcDbMText
 10
442.4742516273409
 20
625.6829270414498
 30
0.0
 40
6.75
 41
35.0
 71
     2
 72
     5
  1
4125
 73
     1
 44
1.0
1001
ACAD
1000
MTEXTBEGIN
1070
    73
1070
     1
1070
    44
1040
1.0
1070
    74
1070
     0
1000
MTEXTEND
  0
MTEXT
  5
2A087
330
1F
100
AcDbEntity
  8
0
100
AcDbMText
 10
442.4742516273409
 20
580.6829270414498
 30
0.0
 40
6.75
 41
35.0
 71
     2
 72
     5
  1
4129
 73
     1
 44
1.0
1001
ACAD
1000
MTEXTBEGIN
1070
    73
1070
     1
1070
    44
1040
1.0
1070
    74
1070
     0
1000
MTEXTEND
  0
MTEXT
  5
2A088
330
1F
100
AcDbEntity
  8
0
100
AcDbMText
 10
506.474251627341
 20
742.6829270414501
 30
0.0
 40
6.75
 41
35.0
 71
     2
 72
     5
  1
4717
 73
     1
 44
1.0
1001
ACAD
1000
MTEXTBEGIN
1070
    73
1070
     1
1070
    44
1040
1.0
1070
    74
1070
     0
1000
MTEXTEND
  0
MTEXT
  5
2A089
330
1F
100
AcDbEntity
  8
0
100
AcDbMText
 10
506.474251627341
 20
705.6829270414501
 30
0.0
 40
6.75
 41
35.0
 71
     2
 72
     5
  1
4721
 73
     1
 44
1.0
1001
ACAD
1000
MTEXTBEGIN
1070
    73
1070
     1
1070
    44
1040
1.0
1070
    74
1070
     0
1000
MTEXTEND
  0
MTEXT
  5
2A08A
330
1F
100
AcDbEntity
  8
0
100
AcDbMText
 10
506.474251627341
 20
666.6829270414503
 30
0.0
 40
6.75
 41
35.0
 71
     2
 72
     5
  1
4723
 73
     1
 44
1.0
1001
ACAD
1000
MTEXTBEGIN
1070
    73
1070
     1
1070
    44
1040
1.0
1070
    74
1070
     0
1000
MTEXTEND
  0
MTEXT
  5
2A08B
330
1F
100
AcDbEntity
  8
0
100
AcDbMText
 10
506.474251627341
 20
625.6829270414498
 30
0.0
 40
6.75
 41
35.0
 71
     2
 72
     5
  1
4725
 73
     1
 44
1.0
1001
ACAD
1000
MTEXTBEGIN
1070
    73
1070
     1
1070
    44
1040
1.0
1070
    74
1070
     0
1000
MTEXTEND
  0
MTEXT
  5
2A08C
330
1F
100
AcDbEntity
  8
0
100
AcDbMText
 10
506.474251627341
 20
580.6829270414498
 30
0.0
 40
6.75
 41
35.0
 71
     2
 72
     5
  1
4729
 73
     1
 44
1.0
1001
ACAD
1000
MTEXTBEGIN
1070
    73
1070
     1
1070
    44
1040
1.0
1070
    74
1070
     0
1000
MTEXTEND
  0
MTEXT
  5
2A08D
330
1F
100
AcDbEntity
  8
0
100
AcDbMText
 10
576.4742516273409
 20
742.6829270414501
 30
0.0
 40
6.75
 41
35.0
 71
     2
 72
     5
  1
5317
 73
     1
 44
1.0
1001
ACAD
1000
MTEXTBEGIN
1070
    73
1070
     1
1070
    44
1040
1.0
1070
    74
1070
     0
1000
MTEXTEND
  0
MTEXT
  5
2A08E
330
1F
100
AcDbEntity
  8
0
100
AcDbMText
 10
576.4742516273409
 20
705.6829270414501
 30
0.0
 40
6.75
 41
35.0
 71
     2
 72
     5
  1
5321
 73
     1
 44
1.0
1001
ACAD
1000
MTEXTBEGIN
1070
    73
1070
     1
1070
    44
1040
1.0
1070
    74
1070
     0
1000
MTEXTEND
  0
MTEXT
  5
2A08F
330
1F
100
AcDbEntity
  8
0
100
AcDbMText
 10
576.4742516273409
 20
666.6829270414503
 30
0.0
 40
6.75
 41
35.0
 71
     2
 72
     5
  1
5323
 73
     1
 44
1.0
1001
ACAD
1000
MTEXTBEGIN
1070
    73
1070
     1
1070
    44
1040
1.0
1070
    74
1070
     0
1000
MTEXTEND
  0
MTEXT
  5
2A090
330
1F
100
AcDbEntity
  8
0
100
AcDbMText
 10
576.4742516273409
 20
625.6829270414498
 30
0.0
 40
6.75
 41
35.0
 71
     2
 72
     5
  1
5325
 73
     1
 44
1.0
1001
ACAD
1000
MTEXTBEGIN
1070
    73
1070
     1
1070
    44
1040
1.0
1070
    74
1070
     0
1000
MTEXTEND
  0
MTEXT
  5
2A091
330
1F
100
AcDbEntity
  8
0
100
AcDbMText
 10
576.4742516273409
 20
580.6829270414498
 30
0.0
 40
6.75
 41
35.0
 71
     2
 72
     5
  1
5329
 73
     1
 44
1.0
1001
ACAD
1000
MTEXTBEGIN
1070
    73
1070
     1
1070
    44
1040
1.0
1070
    74
1070
     0
1000
MTEXTEND
  0
TEXT
  5
2A097
330
1F
100
AcDbEntity
  8
0
100
AcDbText
 10
296.0959016091524
 20
837.6021331830767
 30
0.0
 40
9.375
  1
Vent and Fixed Units
100
AcDbText
  0
TEXT
  5
2A098
330
1F
100
AcDbEntity
  8
0
100
AcDbText
 10
25.31151960458837
 20
837.6021331830767
 30
0.0
 40
9.375
  1
Vent Units
100
AcDbText
  0
INSERT
  5
2A099
330
1F
100
AcDbEntity
  8
0
100
AcDbBlockReference
  2
341
 10
319.2267614032472
 20
639.1634863866062
 30
0.0
 41
96.0
 42
96.0
 43
96.0
 50
90.0
  0
INSERT
  5
2A0C9
330
1F
100
AcDbEntity
  8
0
100
AcDbBlockReference
  2
341
 10
319.2840601754164
 20
717.1634863866065
 30
0.0
 41
96.0
 42
96.0
 43
96.0
 50
90.0
  0
INSERT
  5
2A0CA
330
1F
100
AcDbEntity
  8
0
100
AcDbBlockReference
  2
341
 10
319.2840601754164
 20
752.1634863866061
 30
0.0
 41
96.0
 42
96.0
 43
96.0
 50
90.0
  0
INSERT
  5
2A0CB
330
1F
100
AcDbEntity
  8
0
100
AcDbBlockReference
  2
341
 10
319.2840601754164
 20
596.1634863866062
 30
0.0
 41
96.0
 42
96.0
 43
96.0
 50
90.0
  0
INSERT
  5
2A0CC
330
1F
100
AcDbEntity
  8
0
100
AcDbBlockReference
  2
342
 10
381.5665173039402
 20
800.7749816909749
 30
0.0
 41
96.0
 42
96.0
 43
96.0
  0
INSERT
  5
2A0D4
330
1F
100
AcDbEntity
  8
0
100
AcDbBlockReference
  2
342
 10
48.44237939868327
 20
681.8827906158018
 30
0.0
 41
96.0
 42
96.0
 43
96.0
 50
90.0
  0
INSERT
  5
2A0D5
330
1F
100
AcDbEntity
  8
0
100
AcDbBlockReference
  2
341
 10
48.49967817085243
 20
596.1297210387208
 30
0.0
 41
96.0
 42
96.0
 43
96.0
 50
90.0
  0
INSERT
  5
2A0D6
330
1F
100
AcDbEntity
  8
0
100
AcDbBlockReference
  2
341
 10
48.44237939868327
 20
639.1634863866062
 30
0.0
 41
96.0
 42
96.0
 43
96.0
 50
90.0
  0
INSERT
  5
2A0D7
330
1F
100
AcDbEntity
  8
0
100
AcDbBlockReference
  2
341
 10
48.49967817085254
 20
717.1634863866065
 30
0.0
 41
96.0
 42
96.0
 43
96.0
 50
90.0
  0
TEXT
  5
2A0D8
330
1F
100
AcDbEntity
  8
0
100
AcDbText
 10
51.95431664288518
 20
631.4329270414494
 30
0.0
 40
7.0
  1
2' 1
 50
90.0
 72
     4
 11
48.44237939868327
 21
639.1634863866062
 31
0.0
100
AcDbText
  0
TEXT
  5
2A0D9
330
1F
100
AcDbEntity
  8
0
100
AcDbText
 10
68.43651960458846
 20
631.4329270414494
 30
0.0
 40
7.0
  1
2' 1"
 50
90.0
 72
     4
 11
64.92458236038655
 21
640.8991616935639
 31
0.0
100
AcDbText
  0
TEXT
  5
2A0DA
330
1F
100
AcDbEntity
  8
0
100
AcDbText
 10
25.3115196045885
 20
631.4329270414494
 30
0.0
 40
6.0
  1
(654)
 50
90.0
 72
     4
 11
23.14235180104143
 21
641.2166923893347
 31
0.0
100
AcDbText
  0
TEXT
  5
2A0DB
330
1F
100
AcDbEntity
  8
0
100
AcDbText
 10
35.0615196045885
 20
631.4329270414494
 30
0.0
 40
6.0
  1
(635)
 50
90.0
 72
     4
 11
32.89235180104143
 21
641.2166923893347
 31
0.0
100
AcDbText
  0
TEXT
  5
2A0DC
330
1F
100
AcDbEntity
  8
0
100
AcDbText
 10
51.95431664288517
 20
588.399161693564
 30
0.0
 40
7.0
  1
2' 5
 50
90.0
 72
     4
 11
48.49967817085243
 21
596.1297210387208
 31
0.0
100
AcDbText
  0
TEXT
  5
2A0DD
330
1F
100
AcDbEntity
  8
0
100
AcDbText
 10
68.43651960458848
 20
588.3991616935642
 30
0.0
 40
7.0
  1
2' 5"
 50
90.0
 72
     4
 11
64.98188113255574
 21
597.8653963456788
 31
0.0
100
AcDbText
  0
TEXT
  5
2A0DE
330
1F
100
AcDbEntity
  8
0
100
AcDbText
 10
25.3115196045885
 20
588.399161693564
 30
0.0
 40
6.0
  1
(756)
 50
90.0
 72
     4
 11
23.14235180104143
 21
598.1829270414493
 31
0.0
100
AcDbText
  0
TEXT
  5
2A0DF
330
1F
100
AcDbEntity
  8
0
100
AcDbText
 10
35.0615196045885
 20
588.399161693564
 30
0.0
 40
6.0
  1
(737)
 50
90.0
 72
     4
 11
32.89235180104143
 21
598.1829270414493
 31
0.0
100
AcDbText
  0
TEXT
  5
2A0E0
330
1F
100
AcDbEntity
  8
0
100
AcDbText
 10
51.95431664288518
 20
671.4329270414498
 30
0.0
 40
7.0
  1
1' 11
 50
90.0
 72
     4
 11
48.44237939868327
 21
681.8827906158018
 31
0.0
100
AcDbText
  0
TEXT
  5
2A0E1
330
1F
100
AcDbEntity
  8
0
100
AcDbText
 10
68.43651960458846
 20
671.4329270414498
 30
0.0
 40
7.0
  1
1' 11"
 50
90.0
 72
     4
 11
64.92458236038655
 21
683.6184659227594
 31
0.0
100
AcDbText
  0
TEXT
  5
2A0E2
330
1F
100
AcDbEntity
  8
0
100
AcDbText
 10
25.3115196045885
 20
671.4329270414498
 30
0.0
 40
6.0
  1
(603)
 50
90.0
 72
     4
 11
23.14235180104143
 21
681.2166923893352
 31
0.0
100
AcDbText
  0
TEXT
  5
2A0E3
330
1F
100
AcDbEntity
  8
0
100
AcDbText
 10
35.0615196045885
 20
671.4329270414498
 30
0.0
 40
6.0
  1
(584)
 50
90.0
 72
     4
 11
32.89235180104143
 21
681.2166923893352
 31
0.0
100
AcDbText
  0
TEXT
  5
2A0E4
330
1F
100
AcDbEntity
  8
0
100
AcDbText
 10
35.0615196045885
 20
709.4329270414497
 30
0.0
 40
6.0
  1
(533)
 50
90.0
 72
     4
 11
32.89235180104143
 21
719.2166923893351
 31
0.0
100
AcDbText
  0
TEXT
  5
2A0E5
330
1F
100
AcDbEntity
  8
0
100
AcDbText
 10
25.3115196045885
 20
709.4329270414497
 30
0.0
 40
6.0
  1
(552)
 50
90.0
 72
     4
 11
23.14235180104143
 21
719.2166923893351
 31
0.0
100
AcDbText
  0
TEXT
  5
2A0E6
330
1F
100
AcDbEntity
  8
0
100
AcDbText
 10
68.43651960458848
 20
709.4329270414497
 30
0.0
 40
7.0
  1
1' 9"
 50
90.0
 72
     4
 11
64.98188113255574
 21
718.8991616935643
 31
0.0
100
AcDbText
  0
TEXT
  5
2A0E7
330
1F
100
AcDbEntity
  8
0
100
AcDbText
 10
51.95431664288517
 20
709.4329270414497
 30
0.0
 40
7.0
  1
1' 9
 50
90.0
 72
     4
 11
48.49967817085243
 21
717.1634863866065
 31
0.0
100
AcDbText
  0
TEXT
  5
2A0F4
330
1F
100
AcDbEntity
  8
0
100
AcDbText
 10
61.68651960458839
 20
779.5489542977645
 30
0.0
 40
6.75
  1
Frame
 72
     4
 11
75.30853529353791
 21
782.8687019103157
 31
0.0
100
AcDbText
  0
TEXT
  5
2A0F5
330
1F
100
AcDbEntity
  8
0
100
AcDbText
 10
45.18651960458837
 20
796.0489542977643
 30
0.0
 40
6.75
  1
Opening
 72
     4
 11
63.0123211052705
 21
798.4915702595651
 31
0.0
100
AcDbText
  0
LINE
  5
2A0F6
330
1F
100
AcDbEntity
  8
0
100
AcDbLine
 10
73.30254686090277
 20
774.6829270414496
 30
0.0
 11
258.3722226269723
 21
774.6829270414495
 31
0.0
  0
LINE
  5
2A0F7
330
1F
100
AcDbEntity
  8
0
100
AcDbLine
 10
56.80703323274551
 20
791.1784406696069
 30
0.0
 11
258.3722226269723
 21
791.1784406696068
 31
0.0
  0
LINE
  5
2A0F8
330
1F
100
AcDbEntity
  8
0
100
AcDbLine
 10
40.31151960458837
 20
807.6739542977644
 30
0.0
 11
258.3722226269723
 21
807.6739542977644
 31
0.0
  0
INSERT
  5
2A0F9
330
1F
100
AcDbEntity
  8
0
100
AcDbBlockReference
  2
341
 10
231.8527819721292
 20
799.5035927697974
 30
0.0
 41
96.0
 42
96.0
 43
96.0
  0
INSERT
  5
2A0FA
330
1F
100
AcDbEntity
  8
0
100
AcDbBlockReference
  2
341
 10
186.8527819721292
 20
799.5608915419665
 30
0.0
 41
96.0
 42
96.0
 43
96.0
  0
INSERT
  5
2A0FB
330
1F
100
AcDbEntity
  8
0
100
AcDbBlockReference
  2
342
 10
147.5720862013242
 20
799.5608915419665
 30
0.0
 41
96.0
 42
96.0
 43
96.0
  0
INSERT
  5
2A0FC
330
1F
100
AcDbEntity
  8
0
100
AcDbBlockReference
  2
341
 10
104.8527819721291
 20
799.5035927697974
 30
0.0
 41
96.0
 42
96.0
 43
96.0
  0
TEXT
  5
2A0FD
330
1F
100
AcDbEntity
  8
0
100
AcDbText
 10
179.1222226269723
 20
796.0489542977645
 30
0.0
 40
7.0
  1
2' 1
 72
     4
 11
186.8527819721292
 21
799.5608915419665
 31
0.0
100
AcDbText
  0
TEXT
  5
2A0FE
330
1F
100
AcDbEntity
  8
0
100
AcDbText
 10
179.1222226269723
 20
779.5489542977645
 30
0.0
 40
7.0
  1
2' 1"
 72
     4
 11
188.5884572790869
 21
783.0608915419665
 31
0.0
100
AcDbText
  0
TEXT
  5
2A0FF
330
1F
100
AcDbEntity
  8
0
100
AcDbText
 10
179.1222226269722
 20
822.589110661551
 30
0.0
 40
6.0
  1
(654)
 72
     4
 11
188.9059879748576
 21
824.7582784650981
 31
0.0
100
AcDbText
  0
TEXT
  5
2A100
330
1F
100
AcDbEntity
  8
0
100
AcDbText
 10
179.1222226269722
 20
812.9239542977645
 30
0.0
 40
6.0
  1
(635)
 72
     4
 11
188.9059879748576
 21
815.0931221013117
 31
0.0
100
AcDbText
  0
TEXT
  5
2A101
330
1F
100
AcDbEntity
  8
0
100
AcDbText
 10
137.1222226269722
 20
796.0489542977645
 30
0.0
 40
7.0
  1
1' 11
 72
     4
 11
147.5720862013242
 21
799.5608915419665
 31
0.0
100
AcDbText
  0
TEXT
  5
2A102
330
1F
100
AcDbEntity
  8
0
100
AcDbText
 10
137.1222226269722
 20
779.5489542977645
 30
0.0
 40
7.0
  1
1' 11"
 72
     4
 11
149.3077615082819
 21
783.0608915419665
 31
0.0
100
AcDbText
  0
TEXT
  5
2A103
330
1F
100
AcDbEntity
  8
0
100
AcDbText
 10
137.1222226269722
 20
822.6739542977645
 30
0.0
 40
6.0
  1
(603)
 72
     4
 11
146.9059879748576
 21
824.8431221013117
 31
0.0
100
AcDbText
  0
TEXT
  5
2A104
330
1F
100
AcDbEntity
  8
0
100
AcDbText
 10
137.1222226269722
 20
812.9239542977645
 30
0.0
 40
6.0
  1
(584)
 72
     4
 11
146.9059879748576
 21
815.0931221013117
 31
0.0
100
AcDbText
  0
TEXT
  5
2A105
330
1F
100
AcDbEntity
  8
0
100
AcDbText
 10
97.12222262697229
 20
796.0489542977645
 30
0.0
 40
7.0
  1
1' 9
 72
     4
 11
104.8527819721291
 21
799.5035927697974
 31
0.0
100
AcDbText
  0
TEXT
  5
2A106
330
1F
100
AcDbEntity
  8
0
100
AcDbText
 10
97.12222262697231
 20
779.5489542977645
 30
0.0
 40
7.0
  1
1' 9"
 72
     4
 11
106.5884572790869
 21
783.0035927697974
 31
0.0
100
AcDbText
  0
TEXT
  5
2A107
330
1F
100
AcDbEntity
  8
0
100
AcDbText
 10
97.12222262697224
 20
822.6739542977645
 30
0.0
 40
6.0
  1
(552)
 72
     4
 11
106.9059879748576
 21
824.8431221013117
 31
0.0
100
AcDbText
  0
TEXT
  5
2A108
330
1F
100
AcDbEntity
  8
0
100
AcDbText
 10
97.12222262697224
 20
812.9239542977645
 30
0.0
 40
6.0
  1
(533)
 72
     4
 11
106.9059879748576
 21
815.0931221013117
 31
0.0
100
AcDbText
  0
TEXT
  5
2A109
330
1F
100
AcDbEntity
  8
0
100
AcDbText
 10
224.1222226269723
 20
812.9239542977645
 30
0.0
 40
6.0
  1
(737)
 72
     4
 11
233.9059879748576
 21
815.0931221013117
 31
0.0
100
AcDbText
  0
TEXT
  5
2A10A
330
1F
100
AcDbEntity
  8
0
100
AcDbText
 10
224.1222226269723
 20
822.6739542977645
 30
0.0
 40
6.0
  1
(756)
 72
     4
 11
233.9059879748576
 21
824.8431221013117
 31
0.0
100
AcDbText
  0
TEXT
  5
2A10B
330
1F
100
AcDbEntity
  8
0
100
AcDbText
 10
224.1222226269723
 20
779.5489542977643
 30
0.0
 40
7.0
  1
2' 5"
 72
     4
 11
233.5884572790869
 21
783.0035927697971
 31
0.0
100
AcDbText
  0
TEXT
  5
2A10C
330
1F
100
AcDbEntity
  8
0
100
AcDbText
 10
224.1222226269723
 20
796.0489542977645
 30
0.0
 40
7.0
  1
2' 5
 72
     4
 11
231.8527819721292
 21
799.5035927697974
 31
0.0
100
AcDbText
  0
TEXT
  5
2A10D
330
1F
100
AcDbEntity
  8
0
100
AcDbText
 10
331.1222226269723
 20
822.6739542977645
 30
0.0
 40
6.0
  1
(908)
 72
     4
 11
340.9059879748577
 21
824.8431221013117
 31
0.0
100
AcDbText
  0
TEXT
  5
2A10E
330
1F
100
AcDbEntity
  8
0
100
AcDbText
 10
331.1222226269723
 20
812.9239542977645
 30
0.0
 40
6.0
  1
(889)
 72
     4
 11
340.9059879748577
 21
815.0931221013117
 31
0.0
100
AcDbText
  0
LINE
  5
2A10F
330
1F
100
AcDbEntity
  8
0
100
AcDbLine
 10
40.31151960458837
 20
578.4329270414493
 30
0.0
 11
40.31151960458837
 21
807.6739542977644
 31
0.0
  0
LINE
  5
2A110
330
1F
100
AcDbEntity
  8
0
100
AcDbLine
 10
56.81055851916386
 20
578.4329270414493
 30
0.0
 11
56.80703323274551
 21
791.1784406696069
 31
0.0
  0
LINE
  5
2A111
330
1F
100
AcDbEntity
  8
0
100
AcDbLine
 10
73.31054187088369
 20
578.4329270414493
 30
0.0
 11
73.30254686090277
 21
774.6829270414496
 31
0.0
  0
INSERT
  5
2A303
330
1F
100
AcDbEntity
  8
0
100
AcDbBlockReference
  2
ASPCHP2121T
 10
96.37222262697228
 20
708.6829270414497
 30
0.0
  0
INSERT
  5
2A3D3
330
1F
100
AcDbEntity
  8
0
100
AcDbBlockReference
  2
ASPCHP2323T
 10
135.3722226269722
 20
669.6829270414498
 30
0.0
  0
INSERT
  5
2A3EC
330
1F
100
AcDbEntity
  8
0
100
AcDbBlockReference
  2
ASPCHP2929T
 10
219.3722226269723
 20
583.6829270414494
 30
0.0
  0
INSERT
  5
2A3F8
330
1F
100
AcDbEntity
  8
0
100
AcDbBlockReference
  2
ASPCHP2525T
 10
176.3722226269722
 20
628.6829270414493
 30
0.0
  0
INSERT
  5
2AB1C
330
1F
100
AcDbEntity
  8
0
100
AcDbBlockReference
  2
342
 10
321.6840601754163
 20
608.4610863866061
 30
0.0
  0
ENDSEC
  0
SECTION
  2
OBJECTS
  0
DICTIONARY
  5
C
330
0
100
AcDbDictionary
281
     1
  3
ACAD_COLOR
350
A6AD
  3
ACAD_GROUP
350
D
  3
ACAD_LAYOUT
350
1A
  3
ACAD_MATERIAL
350
A6AC
  3
ACAD_MLEADERSTYLE
350
28C40
  3
ACAD_MLINESTYLE
350
17
  3
ACAD_PLOTSETTINGS
350
19
  3
ACAD_PLOTSTYLENAME
350
E
  3
ACAD_SCALELIST
350
28C1E
  3
ACAD_TABLESTYLE
350
28C1C
  3
ACAD_VISUALSTYLE
350
28C0B
  3
AcadDim
350
15D
  3
ACDB_RECOMPOSE_DATA
350
28E72
  3
AcDbVariableDictionary
350
79D9
  3
ADE_QUERY_LIBRARY
350
1012
  3
AMAcad
350
1B9
  3
ASE_INDEX_DICTIONARY
350
133DF
  3
AVAT_FILE_STORE
350
FD6
  3
DWGPROPS
350
2AB68
1001
ADE
1000
ADE02C004
1000
[Query]
1000
CaseSensitiveMatch=0
1000
SaveCurrQueryInSession=1
1000
MkSelSetWithQryObj=0
1000
ShowBlockAsInsPt=0
1000
CreateAssociativeHatchObjects=0
1000
ReferenceBoundaryForAreaLocation=1
1000
ShowImageAsBoundary=1
1000
DefaultJoinOperator=2
1000
ColorForAdd=red
1000
ColorForRemove=red
1000
BlockLocnForQuery=1
1000
TextLocnForQuery=1
1000
[Save Back]
1000
RedefineBlockDefinitions=1
1000
RedefineLayerDefinitions=1
1000
RedefineTextStyleDefinitions=1
1000
RemoveUnusedGroups=1
1000
EraseSavedBackObjects=1
1000
RemoveLockAfterSave=1
1000
CreateHistoryFileOfChanges=0
1000
CreateBackupFileOfSourceDwg=1
1000
DontAddObjectsToSaveSet=0
1000
MarkObjectsForEditingWithoutPrompting=0
1000
[Coordinate Transformation]
1000
RestoreLastActiveDwgsOnStartup=1
1000
ActivateDwgsOnAttach=1
1000
AdjustSizesAndScalesForChangesInUnits=1
1000
AdjustRotationsForMapDistortions=1
1000
AdjustSizesAndScalesForMapDistortions=1
1000
AdjustElevations=1
1000
AdjustZeroRotationObjects=1
1000
ReconnectDbOnWSOpen=1
1000
NoOfSQLConditionsInHistory=10
  0
DICTIONARY
  5
29223
330
8
100
AcDbDictionary
280
     1
281
     1
  0
DICTIONARY
  5
13579
330
2
100
AcDbDictionary
280
     1
281
     1
  3
ACAD_LAYERFILTERS
360
29233
  3
ACAD_LAYERSTATES
360
1357A
  3
ACLYDICTIONARY
360
29232
  0
DICTIONARY
  5
28E32
330
10
100
AcDbDictionary
280
     1
281
     1
  3
ADSK_XREC_LAYER_RECONCILED
360
28E33
  0
DICTIONARY
  5
28E36
330
1462C
100
AcDbDictionary
280
     1
281
     1
  0
DICTIONARY
  5
28E38
330
1462D
100
AcDbDictionary
280
     1
281
     1
  0
DICTIONARY
  5
28E3A
330
1462E
100
AcDbDictionary
280
     1
281
     1
  0
DICTIONARY
  5
28E4A
330
15439
100
AcDbDictionary
280
     1
281
     1
  0
DICTIONARY
  5
28E4C
330
19873
100
AcDbDictionary
280
     1
281
     1
  0
DICTIONARY
  5
28E86
330
28E85
100
AcDbDictionary
280
     1
281
     1
  0
DICTIONARY
  5
29993
330
29992
100
AcDbDictionary
280
     1
281
     1
  0
DICTIONARY
  5
12221
330
1F
100
AcDbDictionary
280
     1
281
     1
  0
DICTIONARY
  5
2AB2A
330
149C3
100
AcDbDictionary
280
     1
281
     1
  3
ACAD_SORTENTS
360
2AB2B
  0
DICTIONARY
  5
2970A
330
263E7
100
AcDbDictionary
280
     1
281
     1
  3
ACAD_SORTENTS
360
2AA90
  0
DICTIONARY
  5
28E92
330
28E87
100
AcDbDictionary
280
     1
281
     1
  3
ACAD_SORTENTS
360
2AB03
  0
DICTIONARY
  5
28EA3
330
28E98
100
AcDbDictionary
280
     1
281
     1
  3
ACAD_SORTENTS
360
2AACA
  0
DICTIONARY
  5
28EB5
330
28EA8
100
AcDbDictionary
280
     1
281
     1
  3
ACAD_SORTENTS
360
2AA3D
  0
DICTIONARY
  5
28EEB
330
28EE0
100
AcDbDictionary
280
     1
281
     1
  3
ACAD_SORTENTS
360
2AAE8
  0
DICTIONARY
  5
28EFB
330
28EF0
100
AcDbDictionary
280
     1
281
     1
  3
ACAD_SORTENTS
360
2AAAE
  0
DICTIONARY
  5
28F0B
330
28F00
100
AcDbDictionary
280
     1
281
     1
  3
ACAD_SORTENTS
360
2AA5F
  0
DICTIONARY
  5
28F1E
330
28F11
100
AcDbDictionary
280
     1
281
     1
  3
ACAD_SORTENTS
360
2A98E
  0
DICTIONARY
  5
28F54
330
28F49
100
AcDbDictionary
280
     1
281
     1
  3
ACAD_SORTENTS
360
2A90A
  0
DICTIONARY
  5
28F64
330
28F59
100
AcDbDictionary
280
     1
281
     1
  3
ACAD_SORTENTS
360
2A928
  0
DICTIONARY
  5
28F76
330
28F69
100
AcDbDictionary
280
     1
281
     1
  3
ACAD_SORTENTS
360
2A96C
  0
DICTIONARY
  5
28F86
330
28F7B
100
AcDbDictionary
280
     1
281
     1
  3
ACAD_SORTENTS
360
2A94A
  0
DICTIONARY
  5
28FBC
330
28FB1
100
AcDbDictionary
280
     1
281
     1
  3
ACAD_SORTENTS
360
2A8E4
  0
DICTIONARY
  5
28FCC
330
28FC1
100
AcDbDictionary
280
     1
281
     1
  3
ACAD_SORTENTS
360
2A8A8
  0
DICTIONARY
  5
28FDC
330
28FD1
100
AcDbDictionary
280
     1
281
     1
  3
ACAD_SORTENTS
360
2A8C6
  0
DICTIONARY
  5
28FEE
330
28FE1
100
AcDbDictionary
280
     1
281
     1
  3
ACAD_SORTENTS
360
2A86C
  0
DICTIONARY
  5
2916B
330
2915A
100
AcDbDictionary
280
     1
281
     1
  3
ACAD_SORTENTS
360
2A831
  0
DICTIONARY
  5
29194
330
29186
100
AcDbDictionary
280
     1
281
     1
  3
ACAD_SORTENTS
360
2A816
  0
DICTIONARY
  5
291BD
330
291AF
100
AcDbDictionary
280
     1
281
     1
  3
ACAD_SORTENTS
360
2A7FB
  0
DICTIONARY
  5
291E6
330
291D8
100
AcDbDictionary
280
     1
281
     1
  3
ACAD_SORTENTS
360
2A7E4
  0
DICTIONARY
  5
A6AD
102
{ACAD_REACTORS
330
C
102
}
330
C
100
AcDbDictionary
281
     1
  0
DICTIONARY
  5
D
102
{ACAD_REACTORS
330
C
102
}
330
C
100
AcDbDictionary
281
     1
  0
DICTIONARY
  5
1A
102
{ACAD_REACTORS
330
C
102
}
330
C
100
AcDbDictionary
281
     1
  3
Layout1
350
1355A
  3
Model
350
22
  0
DICTIONARY
  5
A6AC
102
{ACAD_REACTORS
330
C
102
}
330
C
100
AcDbDictionary
281
     1
  3
ByBlock
350
28BFB
  3
ByLayer
350
28BF3
  3
Global
350
28C03
  0
DICTIONARY
  5
28C40
102
{ACAD_REACTORS
330
C
102
}
330
C
100
AcDbDictionary
281
     1
  3
Standard
350
2AB44
  0
DICTIONARY
  5
17
102
{ACAD_REACTORS
330
C
102
}
330
C
100
AcDbDictionary
281
     1
  3
Standard
350
18
  0
DICTIONARY
  5
19
102
{ACAD_REACTORS
330
C
102
}
330
C
100
AcDbDictionary
281
     1
  3
22x17 Xerox8830
350
CBD1
  3
22x34 Xerox8830
350
CBD0
  3
8.5x11(row 1)
350
B30E
  3
8.5x11(row 2)
350
BF67
  3
8.5x11(row 3)
350
BF68
  3
8.5x11(row 4)
350
BF69
  0
ACDBDICTIONARYWDFLT
  5
E
102
{ACAD_REACTORS
330
C
102
}
330
C
100
AcDbDictionary
281
     1
  3
Normal
350
F
100
AcDbDictionaryWithDefault
340
F
  0
DICTIONARY
  5
28C1E
102
{ACAD_REACTORS
330
C
102
}
330
C
100
AcDbDictionary
281
     1
  3
*A1
350
28C60
  3
*A2
350
28C61
  3
*A3
350
28C62
  3
*A4
350
28C63
  3
*A5
350
28C64
  3
A0
350
28C1F
  3
A1
350
28C20
  3
A2
350
28C21
  3
A3
350
28C22
  3
A4
350
28C23
  3
A5
350
28C24
  3
A6
350
28C25
  3
A7
350
28C26
  3
A8
350
28C27
  3
A9
350
28C28
  3
B0
350
28C29
  3
B1
350
28C2A
  3
B2
350
28C2B
  3
B3
350
28C2C
  3
B4
350
28C2D
  3
B5
350
28C2E
  3
B6
350
28C2F
  3
B7
350
28C30
  3
B8
350
28C31
  3
B9
350
28C32
  3
C0
350
28C33
  3
C1
350
28C34
  3
C2
350
28C35
  3
C3
350
28C36
  3
C4
350
28C37
  3
C5
350
28C38
  3
C6
350
28C39
  3
C7
350
28C3A
  3
C8
350
28C3B
  3
C9
350
28C3C
  3
D0
350
28C3D
  3
D1
350
28C3E
  3
D2
350
28C3F
  0
DICTIONARY
  5
28C1C
102
{ACAD_REACTORS
330
C
102
}
330
C
100
AcDbDictionary
281
     1
  3
Standard
350
28C1D
  0
DICTIONARY
  5
28C0B
102
{ACAD_REACTORS
330
C
102
}
330
C
100
AcDbDictionary
281
     1
  3
2dWireframe
350
28C11
  3
3D Hidden
350
28C13
  3
3dWireframe
350
28C12
  3
Basic
350
28C10
  3
Brighten
350
28C17
  3
ColorChange
350
28C1B
  3
Conceptual
350
28C14
  3
Dim
350
28C16
  3
Facepattern
350
28C1A
  3
Flat
350
28C0C
  3
FlatWithEdges
350
28C0D
  3
Gouraud
350
28C0E
  3
GouraudWithEdges
350
28C0F
  3
Linepattern
350
28C19
  3
Realistic
350
28C15
  3
Thicken
350
28C18
  0
XRECORD
  5
15D
102
{ACAD_REACTORS
330
C
102
}
330
C
100
AcDbXrecord
280
     1
 90
   990106
  3

 60
     0
 61
     0
 62
     1
 63
     3
 64
     0
 65
     0
 66
     0
 67
     3
 68
     0
 69
     0
 70
     0
 71
     0
 72
     0
 40
0.0
170
     2
340
0
  0
XRECORD
  5
28E72
102
{ACAD_REACTORS
330
C
102
}
330
C
100
AcDbXrecord
280
     1
 90
        1
330
28C1D
  0
DICTIONARY
  5
79D9
102
{ACAD_REACTORS
330
C
102
}
330
C
100
AcDbDictionary
281
     1
  3
CANNOSCALE
350
28E76
  3
CMLEADERSTYLE
350
28E74
  3
CTABLESTYLE
350
28E73
  3
DIMASSOC
350
79DA
  3
INDEXCTL
350
2AB66
  3
LIGHTINGUNITS
350
28E77
  3
MSLTSCALE
350
28E75
  3
PROJECTNAME
350
13601
  3
SORTENTS
350
2AB65
  0
DICTIONARY
  5
1012
102
{ACAD_REACTORS
330
C
102
}
330
C
100
AcDbDictionary
281
     1
  3
_CurrQry
350
1047
  0
DICTIONARY
  5
1B9
102
{ACAD_REACTORS
330
C
102
}
330
C
100
AcDbDictionary
281
     1
  3
AM_LOADER
350
1BA
  0
DICTIONARY
  5
133DF
102
{ACAD_REACTORS
330
C
102
}
330
C
100
AcDbDictionary
281
     1
  3
ASEBlockHierarchyIndexRecord
350
133E0
1001
DCO15
1040
1576390265.083
  0
DICTIONARY
  5
FD6
102
{ACAD_REACTORS
330
C
102
}
330
C
100
AcDbDictionary
281
     1
  0
XRECORD
  5
2AB68
102
{ACAD_REACTORS
330
C
102
}
330
C
100
AcDbXrecord
280
     1
  1
DWGPROPS COOKIE
  2

  3

  4

  6

  7

  8
rohwertl
  9

300
=
301
=
302
=
303
=
304
=
305
=
306
=
307
=
308
=
309
=
 40
2.161186631944444
 41
2453620.458702304
 42
2455630.691893299
  1

 90
        0
  0
DICTIONARY
  5
29233
102
{ACAD_REACTORS
330
13579
102
}
330
13579
100
AcDbDictionary
281
     1
  0
DICTIONARY
  5
1357A
102
{ACAD_REACTORS
330
13579
102
}
330
13579
100
AcDbDictionary
281
     1
  0
DICTIONARY
  5
29232
102
{ACAD_REACTORS
330
13579
102
}
330
13579
100
AcDbDictionary
281
     1
1001
ACAD
1000
<All
  0
XRECORD
  5
28E33
102
{ACAD_REACTORS
330
28E32
102
}
330
28E32
100
AcDbXrecord
280
     1
290
     1
  0
SORTENTSTABLE
  5
2AB2B
102
{ACAD_REACTORS
330
2AB2A
102
}
330
2AB2A
100
AcDbSortentsTable
330
149C3
  0
SORTENTSTABLE
  5
2AA90
102
{ACAD_REACTORS
330
2970A
102
}
330
2970A
100
AcDbSortentsTable
330
263E7
  0
SORTENTSTABLE
  5
2AB03
102
{ACAD_REACTORS
330
28E92
102
}
330
28E92
100
AcDbSortentsTable
330
28E87
  0
SORTENTSTABLE
  5
2AACA
102
{ACAD_REACTORS
330
28EA3
102
}
330
28EA3
100
AcDbSortentsTable
330
28E98
  0
SORTENTSTABLE
  5
2AA3D
102
{ACAD_REACTORS
330
28EB5
102
}
330
28EB5
100
AcDbSortentsTable
330
28EA8
  0
SORTENTSTABLE
  5
2AAE8
102
{ACAD_REACTORS
330
28EEB
102
}
330
28EEB
100
AcDbSortentsTable
330
28EE0
  0
SORTENTSTABLE
  5
2AAAE
102
{ACAD_REACTORS
330
28EFB
102
}
330
28EFB
100
AcDbSortentsTable
330
28EF0
  0
SORTENTSTABLE
  5
2AA5F
102
{ACAD_REACTORS
330
28F0B
102
}
330
28F0B
100
AcDbSortentsTable
330
28F00
  0
SORTENTSTABLE
  5
2A98E
102
{ACAD_REACTORS
330
28F1E
102
}
330
28F1E
100
AcDbSortentsTable
330
28F11
  0
SORTENTSTABLE
  5
2A90A
102
{ACAD_REACTORS
330
28F54
102
}
330
28F54
100
AcDbSortentsTable
330
28F49
  0
SORTENTSTABLE
  5
2A928
102
{ACAD_REACTORS
330
28F64
102
}
330
28F64
100
AcDbSortentsTable
330
28F59
  0
SORTENTSTABLE
  5
2A96C
102
{ACAD_REACTORS
330
28F76
102
}
330
28F76
100
AcDbSortentsTable
330
28F69
  0
SORTENTSTABLE
  5
2A94A
102
{ACAD_REACTORS
330
28F86
102
}
330
28F86
100
AcDbSortentsTable
330
28F7B
  0
SORTENTSTABLE
  5
2A8E4
102
{ACAD_REACTORS
330
28FBC
102
}
330
28FBC
100
AcDbSortentsTable
330
28FB1
  0
SORTENTSTABLE
  5
2A8A8
102
{ACAD_REACTORS
330
28FCC
102
}
330
28FCC
100
AcDbSortentsTable
330
28FC1
  0
SORTENTSTABLE
  5
2A8C6
102
{ACAD_REACTORS
330
28FDC
102
}
330
28FDC
100
AcDbSortentsTable
330
28FD1
  0
SORTENTSTABLE
  5
2A86C
102
{ACAD_REACTORS
330
28FEE
102
}
330
28FEE
100
AcDbSortentsTable
330
28FE1
  0
SORTENTSTABLE
  5
2A831
102
{ACAD_REACTORS
330
2916B
102
}
330
2916B
100
AcDbSortentsTable
330
2915A
  0
SORTENTSTABLE
  5
2A816
102
{ACAD_REACTORS
330
29194
102
}
330
29194
100
AcDbSortentsTable
330
29186
  0
SORTENTSTABLE
  5
2A7FB
102
{ACAD_REACTORS
330
291BD
102
}
330
291BD
100
AcDbSortentsTable
330
291AF
  0
SORTENTSTABLE
  5
2A7E4
102
{ACAD_REACTORS
330
291E6
102
}
330
291E6
100
AcDbSortentsTable
330
291D8
331
291E4
  5
291E5
331
291E0
  5
291E4
331
291DE
  5
291DF
331
2A4AA
  5
291D9
331
291DA
  5
291DB
331
291E5
  5
2A4AA
331
291DF
  5
291E0
331
291DD
  5
291DE
331
291DB
  5
291DD
331
291D9
  5
291DA
  0
LAYOUT
  5
1355A
102
{ACAD_XDICTIONARY
360
2AB77
102
}
102
{ACAD_REACTORS
330
1A
102
}
330
1A
100
AcDbPlotSettings
  1

  2
\\pelsprnt01\PEASP5
  4

  6

 40
0.0
 41
0.0
 42
0.0
 43
0.0
 44
0.0
 45
0.0
 46
0.0
 47
0.0
 48
0.0
 49
0.0
140
0.0
141
0.0
142
1.0
143
1.0
 70
   688
 72
     0
 73
     0
 74
     5
  7
PellaCAD 2000.ctb
 75
    16
147
1.0
148
0.0
149
0.0
100
AcDbLayout
  1
Layout1
 70
     1
 71
     1
 10
0.0
 20
0.0
 11
12.0
 21
9.0
 12
0.0
 22
0.0
 32
0.0
 14
0.0
 24
0.0
 34
0.0
 15
0.0
 25
0.0
 35
0.0
146
0.0
 13
0.0
 23
0.0
 33
0.0
 16
1.0
 26
0.0
 36
0.0
 17
0.0
 27
1.0
 37
0.0
 76
     0
330
13559
  0
LAYOUT
  5
22
102
{ACAD_XDICTIONARY
360
2AB69
102
}
102
{ACAD_REACTORS
330
1A
102
}
330
1A
100
AcDbPlotSettings
  1

  2

  4

  6

 40
0.0
 41
0.0
 42
0.0
 43
0.0
 44
0.0
 45
0.0
 46
0.0
 47
0.0
 48
0.0
 49
0.0
140
0.0
141
0.0
142
1.0
143
1.0
 70
  1712
 72
     0
 73
     0
 74
     0
  7

 75
     0
147
1.0
148
0.0
149
0.0
100
AcDbLayout
  1
Model
 70
     1
 71
     0
 10
0.0
 20
0.0
 11
12.0
 21
9.0
 12
0.0
 22
0.0
 32
0.0
 14
0.0
 24
0.0
 34
0.0
 15
0.0
 25
0.0
 35
0.0
146
0.0
 13
0.0
 23
0.0
 33
0.0
 16
1.0
 26
0.0
 36
0.0
 17
0.0
 27
1.0
 37
0.0
 76
     0
330
1F
331
28BDD
  0
MATERIAL
  5
28BFB
102
{ACAD_XDICTIONARY
360
28BFC
102
}
102
{ACAD_REACTORS
330
A6AC
102
}
330
A6AC
100
AcDbMaterial
  1
ByBlock
 72
     0
 43
0.0208333333333333
 43
0.0
 43
0.0
 43
0.0
 43
0.0
 43
0.0208333333333333
 43
0.0
 43
0.0
 43
0.0
 43
0.0
 43
1.0
 43
0.0
 43
0.0
 43
0.0
 43
0.0
 43
1.0
 77
     0
 47
0.0208333333333333
 47
0.0
 47
0.0
 47
0.0
 47
0.0
 47
0.0208333333333333
 47
0.0
 47
0.0
 47
0.0
 47
0.0
 47
1.0
 47
0.0
 47
0.0
 47
0.0
 47
0.0
 47
1.0
171
     0
 49
0.0208333333333333
 49
0.0
 49
0.0
 49
0.0
 49
0.0
 49
0.0208333333333333
 49
0.0
 49
0.0
 49
0.0
 49
0.0
 49
1.0
 49
0.0
 49
0.0
 49
0.0
 49
0.0
 49
1.0
175
     0
142
0.0208333333333333
142
0.0
142
0.0
142
0.0
142
0.0
142
0.0208333333333333
142
0.0
142
0.0
142
0.0
142
0.0
142
1.0
142
0.0
142
0.0
142
0.0
142
0.0
142
1.0
179
     0
144
0.0208333333333333
144
0.0
144
0.0
144
0.0
144
0.0
144
0.0208333333333333
144
0.0
144
0.0
144
0.0
144
0.0
144
1.0
144
0.0
144
0.0
144
0.0
144
0.0
144
1.0
147
0.0208333333333333
147
0.0
147
0.0
147
0.0
147
0.0
147
0.0208333333333333
147
0.0
147
0.0
147
0.0
147
0.0
147
1.0
147
0.0
147
0.0
147
0.0
147
0.0
147
1.0
  0
MATERIAL
  5
28BF3
102
{ACAD_XDICTIONARY
360
28BF4
102
}
102
{ACAD_REACTORS
330
A6AC
102
}
330
A6AC
100
AcDbMaterial
  1
ByLayer
 72
     0
 43
0.0208333333333333
 43
0.0
 43
0.0
 43
0.0
 43
0.0
 43
0.0208333333333333
 43
0.0
 43
0.0
 43
0.0
 43
0.0
 43
1.0
 43
0.0
 43
0.0
 43
0.0
 43
0.0
 43
1.0
 77
     0
 47
0.0208333333333333
 47
0.0
 47
0.0
 47
0.0
 47
0.0
 47
0.0208333333333333
 47
0.0
 47
0.0
 47
0.0
 47
0.0
 47
1.0
 47
0.0
 47
0.0
 47
0.0
 47
0.0
 47
1.0
171
     0
 49
0.0208333333333333
 49
0.0
 49
0.0
 49
0.0
 49
0.0
 49
0.0208333333333333
 49
0.0
 49
0.0
 49
0.0
 49
0.0
 49
1.0
 49
0.0
 49
0.0
 49
0.0
 49
0.0
 49
1.0
175
     0
142
0.0208333333333333
142
0.0
142
0.0
142
0.0
142
0.0
142
0.0208333333333333
142
0.0
142
0.0
142
0.0
142
0.0
142
1.0
142
0.0
142
0.0
142
0.0
142
0.0
142
1.0
179
     0
144
0.0208333333333333
144
0.0
144
0.0
144
0.0
144
0.0
144
0.0208333333333333
144
0.0
144
0.0
144
0.0
144
0.0
144
1.0
144
0.0
144
0.0
144
0.0
144
0.0
144
1.0
147
0.0208333333333333
147
0.0
147
0.0
147
0.0
147
0.0
147
0.0208333333333333
147
0.0
147
0.0
147
0.0
147
0.0
147
1.0
147
0.0
147
0.0
147
0.0
147
0.0
147
1.0
  0
MATERIAL
  5
28C03
102
{ACAD_XDICTIONARY
360
28C04
102
}
102
{ACAD_REACTORS
330
A6AC
102
}
330
A6AC
100
AcDbMaterial
  1
Global
 72
     0
 43
0.0208333333333333
 43
0.0
 43
0.0
 43
0.0
 43
0.0
 43
0.0208333333333333
 43
0.0
 43
0.0
 43
0.0
 43
0.0
 43
1.0
 43
0.0
 43
0.0
 43
0.0
 43
0.0
 43
1.0
 77
     0
 47
0.0208333333333333
 47
0.0
 47
0.0
 47
0.0
 47
0.0
 47
0.0208333333333333
 47
0.0
 47
0.0
 47
0.0
 47
0.0
 47
1.0
 47
0.0
 47
0.0
 47
0.0
 47
0.0
 47
1.0
171
     0
 49
0.0208333333333333
 49
0.0
 49
0.0
 49
0.0
 49
0.0
 49
0.0208333333333333
 49
0.0
 49
0.0
 49
0.0
 49
0.0
 49
1.0
 49
0.0
 49
0.0
 49
0.0
 49
0.0
 49
1.0
175
     0
142
0.0208333333333333
142
0.0
142
0.0
142
0.0
142
0.0
142
0.0208333333333333
142
0.0
142
0.0
142
0.0
142
0.0
142
1.0
142
0.0
142
0.0
142
0.0
142
0.0
142
1.0
179
     0
144
0.0208333333333333
144
0.0
144
0.0
144
0.0
144
0.0
144
0.0208333333333333
144
0.0
144
0.0
144
0.0
144
0.0
144
1.0
144
0.0
144
0.0
144
0.0
144
0.0
144
1.0
147
0.0208333333333333
147
0.0
147
0.0
147
0.0
147
0.0
147
0.0208333333333333
147
0.0
147
0.0
147
0.0
147
0.0
147
1.0
147
0.0
147
0.0
147
0.0
147
0.0
147
1.0
  0
MLEADERSTYLE
  5
2AB44
102
{ACAD_REACTORS
330
28C40
102
}
330
28C40
100
AcDbMLeaderStyle
170
     2
171
     1
172
     0
 90
        2
 40
0.0
 41
0.0
173
     1
 91
-1056964608
340
14
 92
       -2
290
     1
 42
0.09
291
     1
 43
0.36
  3
Standard
 44
0.18
300

342
11
174
     1
178
     6
175
     1
176
     0
 93
-1056964608
 45
0.18
292
     0
297
     0
 46
0.18
 94
-1056964608
 47
1.0
 49
1.0
140
1.0
293
     1
141
0.0
294
     1
177
     0
142
1.0
295
     0
296
     0
143
0.125
1001
ACAD_MLEADERVER
1070
     2
  0
MLINESTYLE
  5
18
102
{ACAD_REACTORS
330
17
102
}
330
17
100
AcDbMlineStyle
  2
STANDARD
 70
     0
  3

 62
   256
 51
90.0
 52
90.0
 71
     2
 49
0.5
 62
   256
  6
BYLAYER
 49
-0.5
 62
   256
  6
BYLAYER
  0
PLOTSETTINGS
  5
CBD1
102
{ACAD_XDICTIONARY
360
2AB75
102
}
102
{ACAD_REACTORS
330
19
102
}
330
19
100
AcDbPlotSettings
  1
22x17 Xerox8830
  2
Xes 8830 for 2004.pc3
  4
ANSI_C_(22.00_x_17.00_Inches)
  6

 40
6.793749809265136
 41
6.793749809265136
 42
6.79376220703125
 43
6.79376220703125
 44
558.7999877929687
 45
431.7999877929687
 46
0.0
 47
35.81399999999999
 48
0.0
 49
0.0
140
0.0
141
0.0
142
1.0
143
1.49524349949159
 70
   692
 72
     0
 73
     0
 74
     1
  7
PellaCAD 2000.ctb
 75
     0
147
0.6687873917124656
148
-21.59157886640523
149
-6.230335335960706
  0
PLOTSETTINGS
  5
CBD0
102
{ACAD_XDICTIONARY
360
2AB73
102
}
102
{ACAD_REACTORS
330
19
102
}
330
19
100
AcDbPlotSettings
  1
22x34 Xerox8830
  2
Xes 8830 for 2004.pc3
  4
ANSI_D_(22.00_x_34.00_Inches)
  6

 40
6.793749809265136
 41
6.793749809265136
 42
6.79376220703125
 43
6.79376220703125
 44
558.7999877929687
 45
863.5999755859375
 46
13.462
 47
17.272
 48
0.0
 49
0.0
140
0.0
141
0.0
142
1.0
143
1.0
 70
   692
 72
     0
 73
     1
 74
     1
  7
PellaCAD 2000.ctb
 75
    16
147
1.0
148
-21.59157886640523
149
-6.230335335960706
  0
PLOTSETTINGS
  5
B30E
102
{ACAD_XDICTIONARY
360
2AB6B
102
}
102
{ACAD_REACTORS
330
19
102
}
330
19
100
AcDbPlotSettings
  1
8.5x11(row 1)
  2
\\pelsprnt02\PECSP13
  4
Letter
  6

 40
7.143749713897705
 41
5.027085304260253
 42
7.14373779296875
 43
5.027069091796875
 44
215.8999938964844
 45
279.3999938964844
 46
2.285999999999999
 47
3.556
 48
0.0
 49
0.0
140
0.0
141
0.0
142
1.0
143
1.0
 70
   692
 72
     0
 73
     0
 74
     1
  7
PellaCAD 2000.ctb
 75
    16
147
1.0
148
-4.158432903504825
149
-3.617288020760524
  0
PLOTSETTINGS
  5
BF67
102
{ACAD_XDICTIONARY
360
2AB6D
102
}
102
{ACAD_REACTORS
330
19
102
}
330
19
100
AcDbPlotSettings
  1
8.5x11(row 2)
  2
\\pelsprnt01\PEASP5
  4
User144
  6

 40
6.349999904632568
 41
4.233341693878173
 42
6.349990844726562
 43
4.23333740234375
 44
215.8999938964844
 45
279.3999938964844
 46
3.047999999999999
 47
4.318
 48
0.0
 49
0.0
140
0.0
141
0.0
142
1.0
143
1.0
 70
   692
 72
     0
 73
     0
 74
     1
  7
PellaCAD 2000.ctb
 75
    16
147
1.0
148
-4.158432903504825
149
-3.617288020760524
  0
PLOTSETTINGS
  5
BF68
102
{ACAD_XDICTIONARY
360
2AB6F
102
}
102
{ACAD_REACTORS
330
19
102
}
330
19
100
AcDbPlotSettings
  1
8.5x11(row 3)
  2
\\pelsprnt01\peslp0
  4
Letter
  6

 40
5.365749835968017
 41
5.408084392547607
 42
5.4080810546875
 43
5.365753173828125
 44
215.8999938964844
 45
279.3999938964844
 46
4.064
 47
3.302
 48
0.0
 49
0.0
140
0.0
141
0.0
142
1.0
143
1.0
 70
   692
 72
     0
 73
     0
 74
     1
  7
PellaCAD 2000.ctb
 75
    16
147
1.0
148
-4.158432903504825
149
-3.617288020760524
  0
PLOTSETTINGS
  5
BF69
102
{ACAD_XDICTIONARY
360
2AB71
102
}
102
{ACAD_REACTORS
330
19
102
}
330
19
100
AcDbPlotSettings
  1
8.5x11(row 4)
  2
\\pelsprnt02\PEASP6
  4
Letter
  6

 40
7.143749713897705
 41
5.027085304260253
 42
7.14373779296875
 43
5.027069091796875
 44
215.8999938964844
 45
279.3999938964844
 46
2.285999999999999
 47
3.556
 48
0.0
 49
0.0
140
0.0
141
0.0
142
1.0
143
1.0
 70
   692
 72
     0
 73
     0
 74
     1
  7
PellaCAD 2000.ctb
 75
    16
147
1.0
148
-4.158432903504825
149
-3.617288020760524
  0
ACDBPLACEHOLDER
  5
F
102
{ACAD_REACTORS
330
E
102
}
330
E
  0
SCALE
  5
28C60
102
{ACAD_REACTORS
330
28C1E
102
}
330
28C1E
100
AcDbScale
 70
     0
300
1.5:1
140
1.0
141
1.0
290
     0
  0
SCALE
  5
28C61
102
{ACAD_REACTORS
330
28C1E
102
}
330
28C1E
100
AcDbScale
 70
     0
300
3:1
140
3.0
141
1.0
290
     0
  0
SCALE
  5
28C62
102
{ACAD_REACTORS
330
28C1E
102
}
330
28C1E
100
AcDbScale
 70
     0
300
5:1
140
5.0
141
1.0
290
     0
  0
SCALE
  5
28C63
102
{ACAD_REACTORS
330
28C1E
102
}
330
28C1E
100
AcDbScale
 70
     0
300
1 1/2" = 1'-0"_XREF
140
1.5
141
12.0
290
     0
  0
SCALE
  5
28C64
102
{ACAD_REACTORS
330
28C1E
102
}
330
28C1E
100
AcDbScale
 70
     0
300
1" = 1'
140
1.0
141
1.0
290
     0
  0
SCALE
  5
28C1F
102
{ACAD_REACTORS
330
28C1E
102
}
330
28C1E
100
AcDbScale
 70
     0
300
1:1
140
1.0
141
1.0
290
     1
  0
SCALE
  5
28C20
102
{ACAD_REACTORS
330
28C1E
102
}
330
28C1E
100
AcDbScale
 70
     0
300
1:2
140
1.0
141
2.0
290
     0
  0
SCALE
  5
28C21
102
{ACAD_REACTORS
330
28C1E
102
}
330
28C1E
100
AcDbScale
 70
     0
300
1:4
140
1.0
141
4.0
290
     0
  0
SCALE
  5
28C22
102
{ACAD_REACTORS
330
28C1E
102
}
330
28C1E
100
AcDbScale
 70
     0
300
1:5
140
1.0
141
5.0
290
     0
  0
SCALE
  5
28C23
102
{ACAD_REACTORS
330
28C1E
102
}
330
28C1E
100
AcDbScale
 70
     0
300
1:8
140
1.0
141
8.0
290
     0
  0
SCALE
  5
28C24
102
{ACAD_REACTORS
330
28C1E
102
}
330
28C1E
100
AcDbScale
 70
     0
300
1:10
140
1.0
141
10.0
290
     0
  0
SCALE
  5
28C25
102
{ACAD_REACTORS
330
28C1E
102
}
330
28C1E
100
AcDbScale
 70
     0
300
1:16
140
1.0
141
16.0
290
     0
  0
SCALE
  5
28C26
102
{ACAD_REACTORS
330
28C1E
102
}
330
28C1E
100
AcDbScale
 70
     0
300
1:20
140
1.0
141
20.0
290
     0
  0
SCALE
  5
28C27
102
{ACAD_REACTORS
330
28C1E
102
}
330
28C1E
100
AcDbScale
 70
     0
300
1:30
140
1.0
141
30.0
290
     0
  0
SCALE
  5
28C28
102
{ACAD_REACTORS
330
28C1E
102
}
330
28C1E
100
AcDbScale
 70
     0
300
1:40
140
1.0
141
40.0
290
     0
  0
SCALE
  5
28C29
102
{ACAD_REACTORS
330
28C1E
102
}
330
28C1E
100
AcDbScale
 70
     0
300
1:50
140
1.0
141
50.0
290
     0
  0
SCALE
  5
28C2A
102
{ACAD_REACTORS
330
28C1E
102
}
330
28C1E
100
AcDbScale
 70
     0
300
1:100
140
1.0
141
100.0
290
     0
  0
SCALE
  5
28C2B
102
{ACAD_REACTORS
330
28C1E
102
}
330
28C1E
100
AcDbScale
 70
     0
300
2:1
140
2.0
141
1.0
290
     0
  0
SCALE
  5
28C2C
102
{ACAD_REACTORS
330
28C1E
102
}
330
28C1E
100
AcDbScale
 70
     0
300
4:1
140
4.0
141
1.0
290
     0
  0
SCALE
  5
28C2D
102
{ACAD_REACTORS
330
28C1E
102
}
330
28C1E
100
AcDbScale
 70
     0
300
8:1
140
8.0
141
1.0
290
     0
  0
SCALE
  5
28C2E
102
{ACAD_REACTORS
330
28C1E
102
}
330
28C1E
100
AcDbScale
 70
     0
300
10:1
140
10.0
141
1.0
290
     0
  0
SCALE
  5
28C2F
102
{ACAD_REACTORS
330
28C1E
102
}
330
28C1E
100
AcDbScale
 70
     0
300
100:1
140
100.0
141
1.0
290
     0
  0
SCALE
  5
28C30
102
{ACAD_REACTORS
330
28C1E
102
}
330
28C1E
100
AcDbScale
 70
     0
300
1/128" = 1'-0"
140
0.0078125
141
12.0
290
     0
  0
SCALE
  5
28C31
102
{ACAD_REACTORS
330
28C1E
102
}
330
28C1E
100
AcDbScale
 70
     0
300
1/64" = 1'-0"
140
0.015625
141
12.0
290
     0
  0
SCALE
  5
28C32
102
{ACAD_REACTORS
330
28C1E
102
}
330
28C1E
100
AcDbScale
 70
     0
300
1/32" = 1'-0"
140
0.03125
141
12.0
290
     0
  0
SCALE
  5
28C33
102
{ACAD_REACTORS
330
28C1E
102
}
330
28C1E
100
AcDbScale
 70
     0
300
1/16" = 1'-0"
140
0.0625
141
12.0
290
     0
  0
SCALE
  5
28C34
102
{ACAD_REACTORS
330
28C1E
102
}
330
28C1E
100
AcDbScale
 70
     0
300
3/32" = 1'-0"
140
0.09375
141
12.0
290
     0
  0
SCALE
  5
28C35
102
{ACAD_REACTORS
330
28C1E
102
}
330
28C1E
100
AcDbScale
 70
     0
300
1/8" = 1'-0"
140
0.125
141
12.0
290
     0
  0
SCALE
  5
28C36
102
{ACAD_REACTORS
330
28C1E
102
}
330
28C1E
100
AcDbScale
 70
     0
300
3/16" = 1'-0"
140
0.1875
141
12.0
290
     0
  0
SCALE
  5
28C37
102
{ACAD_REACTORS
330
28C1E
102
}
330
28C1E
100
AcDbScale
 70
     0
300
1/4" = 1'-0"
140
0.25
141
12.0
290
     0
  0
SCALE
  5
28C38
102
{ACAD_REACTORS
330
28C1E
102
}
330
28C1E
100
AcDbScale
 70
     0
300
3/8" = 1'-0"
140
0.375
141
12.0
290
     0
  0
SCALE
  5
28C39
102
{ACAD_REACTORS
330
28C1E
102
}
330
28C1E
100
AcDbScale
 70
     0
300
1/2" = 1'-0"
140
0.5
141
12.0
290
     0
  0
SCALE
  5
28C3A
102
{ACAD_REACTORS
330
28C1E
102
}
330
28C1E
100
AcDbScale
 70
     0
300
3/4" = 1'-0"
140
0.75
141
12.0
290
     0
  0
SCALE
  5
28C3B
102
{ACAD_REACTORS
330
28C1E
102
}
330
28C1E
100
AcDbScale
 70
     0
300
1" = 1'-0"
140
1.0
141
12.0
290
     0
  0
SCALE
  5
28C3C
102
{ACAD_REACTORS
330
28C1E
102
}
330
28C1E
100
AcDbScale
 70
     0
300
1-1/2" = 1'-0"
140
1.5
141
12.0
290
     0
  0
SCALE
  5
28C3D
102
{ACAD_REACTORS
330
28C1E
102
}
330
28C1E
100
AcDbScale
 70
     0
300
3" = 1'-0"
140
3.0
141
12.0
290
     0
  0
SCALE
  5
28C3E
102
{ACAD_REACTORS
330
28C1E
102
}
330
28C1E
100
AcDbScale
 70
     0
300
6" = 1'-0"
140
6.0
141
12.0
290
     0
  0
SCALE
  5
28C3F
102
{ACAD_REACTORS
330
28C1E
102
}
330
28C1E
100
AcDbScale
 70
     0
300
1'-0" = 1'-0"
140
12.0
141
12.0
290
     0
  0
TABLESTYLE
  5
28C1D
102
{ACAD_XDICTIONARY
360
28E70
102
}
102
{ACAD_REACTORS
330
28C1C
102
}
330
28C1C
100
AcDbTableStyle
  3
Standard
 70
     0
 71
     0
 40
0.06
 41
0.06
280
     0
281
     0
  7
Standard
140
0.18
170
     2
 62
     0
 63
     7
283
     0
274
    -2
284
     1
 64
     0
275
    -2
285
     1
 65
     0
276
    -2
286
     1
 66
     0
277
    -2
287
     1
 67
     0
278
    -2
288
     1
 68
     0
279
    -2
289
     1
 69
     0
  7
Standard
140
0.25
170
     5
 62
     0
 63
     7
283
     0
274
    -2
284
     1
 64
     0
275
    -2
285
     1
 65
     0
276
    -2
286
     1
 66
     0
277
    -2
287
     1
 67
     0
278
    -2
288
     1
 68
     0
279
    -2
289
     1
 69
     0
  7
Standard
140
0.18
170
     5
 62
     0
 63
     7
283
     0
274
    -2
284
     1
 64
     0
275
    -2
285
     1
 65
     0
276
    -2
286
     1
 66
     0
277
    -2
287
     1
 67
     0
278
    -2
288
     1
 68
     0
279
    -2
289
     1
 69
     0
  0
VISUALSTYLE
  5
28C11
102
{ACAD_REACTORS
330
28C0B
102
}
330
28C0B
100
AcDbVisualStyle
  2
2dWireframe
 70
     4
 71
     0
 72
     2
 73
     0
 90
        0
 40
-0.6
 41
-30.0
 62
     5
 63
     7
 74
     1
 91
        4
 64
     7
 65
   257
 75
     1
175
     1
 42
1.0
 92
        0
 66
   257
 43
1.0
 76
     1
 77
     6
 78
     2
 67
     7
 79
     5
170
     0
171
     0
290
     0
174
     0
 93
        1
 44
0.0
173
     0
291
     0
 45
0.0
1001
ACAD
1000
AcDbSavedByObjectVersion
1070
     0
  0
VISUALSTYLE
  5
28C13
102
{ACAD_REACTORS
330
28C0B
102
}
330
28C0B
100
AcDbVisualStyle
  2
3D Hidden
 70
     6
 71
     1
 72
     2
 73
     2
 90
        0
 40
-0.6
 41
-30.0
 62
     5
 63
     7
 74
     2
 91
        2
 64
     7
 65
   257
 75
     2
175
     1
 42
40.0
 92
        0
 66
   257
 43
1.0
 76
     1
 77
     6
 78
     2
 67
     7
 79
     3
170
     0
171
     0
290
     0
174
     0
 93
        1
 44
0.0
173
     0
291
     0
 45
0.0
1001
ACAD
1000
AcDbSavedByObjectVersion
1070
     0
  0
VISUALSTYLE
  5
28C12
102
{ACAD_REACTORS
330
28C0B
102
}
330
28C0B
100
AcDbVisualStyle
  2
3dWireframe
 70
     5
 71
     0
 72
     2
 73
     0
 90
        0
 40
-0.6
 41
-30.0
 62
     5
 63
     7
 74
     1
 91
        4
 64
     7
 65
   257
 75
     1
175
     1
 42
1.0
 92
        0
 66
   257
 43
1.0
 76
     1
 77
     6
 78
     2
 67
     7
 79
     5
170
     0
171
     0
290
     0
174
     0
 93
        1
 44
0.0
173
     0
291
     0
 45
0.0
1001
ACAD
1000
AcDbSavedByObjectVersion
1070
     0
  0
VISUALSTYLE
  5
28C10
102
{ACAD_REACTORS
330
28C0B
102
}
330
28C0B
100
AcDbVisualStyle
  2
Basic
 70
     7
 71
     1
 72
     0
 73
     1
 90
        0
 40
-0.6
 41
-30.0
 62
     5
 63
     7
 74
     0
 91
        4
 64
     7
 65
   257
 75
     1
175
     1
 42
1.0
 92
        8
 66
     7
 43
1.0
 76
     1
 77
     6
 78
     2
 67
     7
 79
     5
170
     0
171
     0
290
     0
174
     0
 93
        1
 44
0.0
173
     0
291
     1
 45
0.0
1001
ACAD
1000
AcDbSavedByObjectVersion
1070
     0
  0
VISUALSTYLE
  5
28C17
102
{ACAD_REACTORS
330
28C0B
102
}
330
28C0B
100
AcDbVisualStyle
  2
Brighten
 70
    12
 71
     2
 72
     2
 73
     0
 90
        0
 40
-0.6
 41
-30.0
 62
     5
 63
     7
 74
     1
 91
        4
 64
     7
 65
   257
 75
     1
175
     1
 42
1.0
 92
        8
 66
     7
 43
1.0
 76
     1
 77
     6
 78
     2
 67
     7
 79
     5
170
     0
171
     0
290
     0
174
     0
 93
        1
 44
50.0
173
     0
291
     1
 45
0.0
1001
ACAD
1000
AcDbSavedByObjectVersion
1070
     0
  0
VISUALSTYLE
  5
28C1B
102
{ACAD_REACTORS
330
28C0B
102
}
330
28C0B
100
AcDbVisualStyle
  2
ColorChange
 70
    16
 71
     2
 72
     2
 73
     3
 90
        0
 40
-0.6
 41
-30.0
 62
     5
 63
     8
 74
     1
 91
        4
 64
     7
 65
   257
 75
     1
175
     1
 42
1.0
 92
        8
 66
     8
 43
1.0
 76
     1
 77
     6
 78
     2
 67
     7
 79
     5
170
     0
171
     0
290
     0
174
     0
 93
        1
 44
0.0
173
     0
291
     1
 45
0.0
1001
ACAD
1000
AcDbSavedByObjectVersion
1070
     0
  0
VISUALSTYLE
  5
28C14
102
{ACAD_REACTORS
330
28C0B
102
}
330
28C0B
100
AcDbVisualStyle
  2
Conceptual
 70
     9
 71
     3
 72
     2
 73
     0
 90
        0
 40
-0.6
 41
-30.0
 62
     5
 63
     7
 74
     2
 91
        2
 64
     7
 65
   257
 75
     1
175
     1
 42
40.0
 92
        8
 66
     7
 43
1.0
 76
     1
 77
     6
 78
     2
 67
     7
 79
     3
170
     0
171
     0
290
     0
174
     0
 93
        1
 44
0.0
173
     0
291
     0
 45
0.0
1001
ACAD
1000
AcDbSavedByObjectVersion
1070
     0
  0
VISUALSTYLE
  5
28C16
102
{ACAD_REACTORS
330
28C0B
102
}
330
28C0B
100
AcDbVisualStyle
  2
Dim
 70
    11
 71
     2
 72
     2
 73
     0
 90
        0
 40
-0.6
 41
-30.0
 62
     5
 63
     7
 74
     1
 91
        4
 64
     7
 65
   257
 75
     1
175
     1
 42
1.0
 92
        8
 66
     7
 43
1.0
 76
     1
 77
     6
 78
     2
 67
     7
 79
     5
170
     0
171
     0
290
     0
174
     0
 93
        1
 44
-50.0
173
     0
291
     1
 45
0.0
1001
ACAD
1000
AcDbSavedByObjectVersion
1070
     0
  0
VISUALSTYLE
  5
28C1A
102
{ACAD_REACTORS
330
28C0B
102
}
330
28C0B
100
AcDbVisualStyle
  2
Facepattern
 70
    15
 71
     2
 72
     2
 73
     0
 90
        0
 40
-0.6
 41
-30.0
 62
     5
 63
     7
 74
     1
 91
        4
 64
     7
 65
   257
 75
     1
175
     1
 42
1.0
 92
        8
 66
     7
 43
1.0
 76
     1
 77
     6
 78
     2
 67
     7
 79
     5
170
     0
171
     0
290
     0
174
     0
 93
        1
 44
0.0
173
     0
291
     1
 45
0.0
1001
ACAD
1000
AcDbSavedByObjectVersion
1070
     0
  0
VISUALSTYLE
  5
28C0C
102
{ACAD_REACTORS
330
28C0B
102
}
330
28C0B
100
AcDbVisualStyle
  2
Flat
 70
     0
 71
     2
 72
     1
 73
     1
 90
        2
 40
-0.6
 41
30.0
 62
     5
 63
     7
 74
     0
 91
        4
 64
     7
 65
   257
 75
     1
175
     1
 42
1.0
 92
        8
 66
     7
 43
1.0
 76
     1
 77
     6
 78
     2
 67
     7
 79
     5
170
     0
171
     0
290
     0
174
     0
 93
       13
 44
0.0
173
     0
291
     1
 45
0.0
1001
ACAD
1000
AcDbSavedByObjectVersion
1070
     0
  0
VISUALSTYLE
  5
28C0D
102
{ACAD_REACTORS
330
28C0B
102
}
330
28C0B
100
AcDbVisualStyle
  2
FlatWithEdges
 70
     1
 71
     2
 72
     1
 73
     1
 90
        2
 40
-0.6
 41
30.0
 62
     5
 63
     7
 74
     1
 91
        4
 64
     7
 65
   257
 75
     1
175
     1
 42
1.0
 92
        0
 66
   257
 43
1.0
 76
     1
 77
     6
 78
     2
 67
     7
 79
     5
170
     0
171
     0
290
     0
174
     0
 93
       13
 44
0.0
173
     0
291
     1
 45
0.0
1001
ACAD
1000
AcDbSavedByObjectVersion
1070
     0
  0
VISUALSTYLE
  5
28C0E
102
{ACAD_REACTORS
330
28C0B
102
}
330
28C0B
100
AcDbVisualStyle
  2
Gouraud
 70
     2
 71
     2
 72
     2
 73
     1
 90
        2
 40
-0.6
 41
30.0
 62
     5
 63
     7
 74
     0
 91
        4
 64
     7
 65
   257
 75
     1
175
     1
 42
1.0
 92
        0
 66
     7
 43
1.0
 76
     1
 77
     6
 78
     2
 67
     7
 79
     5
170
     0
171
     0
290
     0
174
     0
 93
       13
 44
0.0
173
     0
291
     1
 45
0.0
1001
ACAD
1000
AcDbSavedByObjectVersion
1070
     0
  0
VISUALSTYLE
  5
28C0F
102
{ACAD_REACTORS
330
28C0B
102
}
330
28C0B
100
AcDbVisualStyle
  2
GouraudWithEdges
 70
     3
 71
     2
 72
     2
 73
     1
 90
        2
 40
-0.6
 41
30.0
 62
     5
 63
     7
 74
     1
 91
        4
 64
     7
 65
   257
 75
     1
175
     1
 42
1.0
 92
        0
 66
   257
 43
1.0
 76
     1
 77
     6
 78
     2
 67
     7
 79
     5
170
     0
171
     0
290
     0
174
     0
 93
       13
 44
0.0
173
     0
291
     1
 45
0.0
1001
ACAD
1000
AcDbSavedByObjectVersion
1070
     0
  0
VISUALSTYLE
  5
28C19
102
{ACAD_REACTORS
330
28C0B
102
}
330
28C0B
100
AcDbVisualStyle
  2
Linepattern
 70
    14
 71
     2
 72
     2
 73
     0
 90
        0
 40
-0.6
 41
-30.0
 62
     5
 63
     7
 74
     1
 91
        4
 64
     7
 65
   257
 75
     7
175
     7
 42
1.0
 92
        8
 66
     7
 43
1.0
 76
     1
 77
     6
 78
     2
 67
     7
 79
     5
170
     0
171
     0
290
     0
174
     0
 93
        1
 44
0.0
173
     0
291
     1
 45
0.0
1001
ACAD
1000
AcDbSavedByObjectVersion
1070
     0
  0
VISUALSTYLE
  5
28C15
102
{ACAD_REACTORS
330
28C0B
102
}
330
28C0B
100
AcDbVisualStyle
  2
Realistic
 70
     8
 71
     2
 72
     2
 73
     0
 90
        0
 40
-0.6
 41
-30.0
 62
     5
 63
     7
 74
     1
 91
        0
 64
     7
 65
   257
 75
     1
175
     1
 42
1.0
 92
        8
 66
     8
 43
1.0
 76
     1
 77
     6
 78
     2
 67
     7
 79
     5
170
     0
171
     0
290
     0
174
     0
 93
       13
 44
0.0
173
     0
291
     0
 45
0.0
1001
ACAD
1000
AcDbSavedByObjectVersion
1070
     0
  0
VISUALSTYLE
  5
28C18
102
{ACAD_REACTORS
330
28C0B
102
}
330
28C0B
100
AcDbVisualStyle
  2
Thicken
 70
    13
 71
     2
 72
     2
 73
     0
 90
        0
 40
-0.6
 41
-30.0
 62
     5
 63
     7
 74
     1
 91
        4
 64
     7
 65
   257
 75
     1
175
     1
 42
1.0
 92
       12
 66
     7
 43
1.0
 76
     1
 77
     6
 78
     2
 67
     7
 79
     5
170
     0
171
     0
290
     0
174
     0
 93
        1
 44
0.0
173
     0
291
     1
 45
0.0
1001
ACAD
1000
AcDbSavedByObjectVersion
1070
     0
  0
DICTIONARYVAR
  5
28E76
102
{ACAD_REACTORS
330
79D9
102
}
330
79D9
100
DictionaryVariables
280
     0
  1
1:1
  0
DICTIONARYVAR
  5
28E74
102
{ACAD_REACTORS
330
79D9
102
}
330
79D9
100
DictionaryVariables
280
     0
  1
STANDARD
  0
DICTIONARYVAR
  5
28E73
102
{ACAD_REACTORS
330
79D9
102
}
330
79D9
100
DictionaryVariables
280
     0
  1
STANDARD
  0
DICTIONARYVAR
  5
79DA
102
{ACAD_REACTORS
330
79D9
102
}
330
79D9
100
DictionaryVariables
280
     0
  1
1
  0
DICTIONARYVAR
  5
2AB66
102
{ACAD_REACTORS
330
79D9
102
}
330
79D9
100
DictionaryVariables
280
     0
  1
0
  0
DICTIONARYVAR
  5
28E77
102
{ACAD_REACTORS
330
79D9
102
}
330
79D9
100
DictionaryVariables
280
     0
  1
0
  0
DICTIONARYVAR
  5
28E75
102
{ACAD_REACTORS
330
79D9
102
}
330
79D9
100
DictionaryVariables
280
     0
  1
0
  0
DICTIONARYVAR
  5
13601
102
{ACAD_REACTORS
330
79D9
102
}
330
79D9
100
DictionaryVariables
280
     0
  1

  0
DICTIONARYVAR
  5
2AB65
102
{ACAD_REACTORS
330
79D9
102
}
330
79D9
100
DictionaryVariables
280
     0
  1
127
  0
XRECORD
  5
1047
102
{ACAD_REACTORS
330
1012
102
}
330
1012
100
AcDbXrecord
280
     1
1000
ADE02C001
1070
     1
1070
     0
1002
{
1002
}
1002
{
1002
}
1002
{
1002
}
1000

  0
ACAD_PROXY_OBJECT
  5
1BA
102
{ACAD_REACTORS
330
1B9
102
}
330
1B9
100
AcDbProxyObject
 90
      499
 91
      504
 95
       23
 70
     0
 93
       51
310
4050289602645F
 94
        0
1001
ACAD
1000
AcRTDxfName
1000
AMLOADER
1000
AcRTDxfName
1000
AMLOADER
1000
AcRTDxfName
1000
AMLOADER
1000
AcRTDxfName
1000
AMLOADER
1000
AcRTDxfName
1000
AMLOADER
1000
AcRTDxfName
1000
AMLOADER
1000
AcRTDxfName
1000
AMLOADER
1000
AcRTDxfName
1000
AMLOADER
1000
AcRTDxfName
1000
AMLOADER
1000
AcRTDxfName
1000
AMLOADER
1000
AcRTDxfName
1000
AMLOADER
1000
AcRTDxfName
1000
AMLOADER
1000
AcRTDxfName
1000
AMLOADER
1000
AcRTDxfName
1000
AMLOADER
1000
AcRTDxfName
1000
AMLOADER
1000
AcRTDxfName
1000
AMLOADER
1000
AcRTDxfName
1000
AMLOADER
1000
AcRTDxfName
1000
AMLOADER
1000
AcRTDxfName
1000
AMLOADER
1000
AcRTDxfName
1000
AMLOADER
1000
AcRTDxfName
1000
AMLOADER
1000
AcRTDxfName
1000
AMLOADER
1000
AcRTDxfName
1000
AMLOADER
1000
AcRTDxfName
1000
AMLOADER
1000
AcRTDxfName
1000
AMLOADER
1000
AcRTDxfName
1000
AMLOADER
1000
AcRTDxfName
1000
AMLOADER
1000
AcRTDxfName
1000
AMLOADER
1000
AcRTDxfName
1000
AMLOADER
1000
AcRTDxfName
1000
AMLOADER
1000
AcRTDxfName
1000
AMLOADER
1000
AcRTDxfName
1000
AMLOADER
1000
AcRTDxfName
1000
AMLOADER
1000
AcRTDxfName
1000
AMLOADER
1000
AcRTDxfName
1000
AMLOADER
1000
AcRTDxfName
1000
AMLOADER
1000
AcRTDxfName
1000
AMLOADER
1000
AcRTDxfName
1000
AMLOADER
1000
AcRTDxfName
1000
AMLOADER
1000
AcRTDxfName
1000
AMLOADER
1000
AcRTDxfName
1000
AMLOADER
1000
AcRTDxfName
1000
AMLOADER
  0
XRECORD
  5
133E0
102
{ACAD_REACTORS
330
133DF
102
}
330
133DF
100
AcDbXrecord
280
     1
330
0
330
0
330
0
330
0
330
0
330
0
330
0
330
0
330
0
330
0
330
0
330
0
330
0
330
0
330
0
330
0
330
0
330
0
330
0
330
0
330
0
330
0
330
0
330
0
330
0
330
0
330
0
330
0
330
0
330
0
330
0
330
0
330
0
330
0
330
0
330
0
330
0
330
0
330
0
330
0
330
0
330
0
330
0
330
0
330
0
330
0
330
0
330
0
330
0
330
0
330
0
330
0
330
0
330
0
330
0
330
0
330
0
330
0
330
0
330
0
330
0
330
0
330
0
330
0
330
0
330
0
330
0
330
0
330
0
330
0
330
0
330
0
330
0
330
0
330
0
330
0
330
0
330
0
330
0
330
0
330
0
330
0
330
0
330
0
330
0
330
0
330
0
330
0
330
0
330
0
330
0
330
0
330
0
330
0
330
0
330
0
330
0
330
0
330
0
330
0
330
0
330
0
330
0
330
0
330
0
330
0
330
0
330
0
330
0
330
0
330
0
330
0
330
0
330
0
330
0
330
0
330
0
330
0
330
0
330
0
330
0
330
0
330
0
330
0
330
0
330
0
330
0
330
0
330
0
330
0
330
0
330
0
330
0
330
0
330
0
330
0
330
0
  0
DICTIONARY
  5
2AB77
330
1355A
100
AcDbDictionary
280
     1
281
     1
  3
ACAD_XREC_ROUNDTRIP
360
2AB78
  0
DICTIONARY
  5
2AB69
330
22
100
AcDbDictionary
280
     1
281
     1
  3
ACAD_XREC_ROUNDTRIP
360
2AB6A
  0
DICTIONARY
  5
28BFC
330
28BFB
100
AcDbDictionary
280
     1
281
     1
  3
ACAD_XREC_ROUNDTRIP
360
2AB7A
  3
BUMPTILE
360
28BFE
  3
DIFFUSETILE
360
28BFD
  3
OPACITYTILE
360
28C01
  3
REFLECTIONTILE
360
28C00
  3
REFRACTIONTILE
360
28C02
  3
SPECULARTILE
360
28BFF
  0
DICTIONARY
  5
28BF4
330
28BF3
100
AcDbDictionary
280
     1
281
     1
  3
ACAD_XREC_ROUNDTRIP
360
2AB79
  3
BUMPTILE
360
28BF6
  3
DIFFUSETILE
360
28BF5
  3
OPACITYTILE
360
28BF9
  3
REFLECTIONTILE
360
28BF8
  3
REFRACTIONTILE
360
28BFA
  3
SPECULARTILE
360
28BF7
  0
DICTIONARY
  5
28C04
330
28C03
100
AcDbDictionary
280
     1
281
     1
  3
ACAD_XREC_ROUNDTRIP
360
2AB7B
  3
BUMPTILE
360
28C06
  3
DIFFUSETILE
360
28C05
  3
OPACITYTILE
360
28C09
  3
REFLECTIONTILE
360
28C08
  3
REFRACTIONTILE
360
28C0A
  3
SPECULARTILE
360
28C07
  0
DICTIONARY
  5
2AB75
330
CBD1
100
AcDbDictionary
280
     1
281
     1
  3
ACAD_XREC_ROUNDTRIP
360
2AB76
  0
DICTIONARY
  5
2AB73
330
CBD0
100
AcDbDictionary
280
     1
281
     1
  3
ACAD_XREC_ROUNDTRIP
360
2AB74
  0
DICTIONARY
  5
2AB6B
330
B30E
100
AcDbDictionary
280
     1
281
     1
  3
ACAD_XREC_ROUNDTRIP
360
2AB6C
  0
DICTIONARY
  5
2AB6D
330
BF67
100
AcDbDictionary
280
     1
281
     1
  3
ACAD_XREC_ROUNDTRIP
360
2AB6E
  0
DICTIONARY
  5
2AB6F
330
BF68
100
AcDbDictionary
280
     1
281
     1
  3
ACAD_XREC_ROUNDTRIP
360
2AB70
  0
DICTIONARY
  5
2AB71
330
BF69
100
AcDbDictionary
280
     1
281
     1
  3
ACAD_XREC_ROUNDTRIP
360
2AB72
  0
DICTIONARY
  5
28E70
330
28C1D
100
AcDbDictionary
280
     1
281
     1
  3
ACAD_ROUNDTRIP_2008_TABLESTYLE_CELLSTYLEMAP
360
2AB67
  3
ACAD_XREC_ROUNDTRIP
360
2AB7C
  0
XRECORD
  5
2AB78
102
{ACAD_REACTORS
330
2AB77
102
}
330
2AB77
100
AcDbXrecord
280
     1
102
SHADEPLOT
 70
     0
102
SHADEPLOTRESLEVEL
 70
     2
102
SHADEPLOTCUSTOMDPI
 70
   300
  0
XRECORD
  5
2AB6A
102
{ACAD_REACTORS
330
2AB69
102
}
330
2AB69
100
AcDbXrecord
280
     1
102
SHADEPLOT
 70
     0
102
SHADEPLOTRESLEVEL
 70
     2
102
SHADEPLOTCUSTOMDPI
 70
   300
  0
XRECORD
  5
2AB7A
102
{ACAD_REACTORS
330
28BFC
102
}
330
28BFC
100
AcDbXrecord
280
     1
102
MATERIAL
148
0.0
149
0.0
149
0.0
 93
        0
 94
      127
282
     0
 72
     0
 77
     0
171
     0
175
     0
179
     0
273
     0
  0
XRECORD
  5
28BFE
102
{ACAD_REACTORS
330
28BFC
102
}
330
28BFC
100
AcDbXrecord
280
     1
270
     1
271
     1
  0
XRECORD
  5
28BFD
102
{ACAD_REACTORS
330
28BFC
102
}
330
28BFC
100
AcDbXrecord
280
     1
270
     1
271
     1
  0
XRECORD
  5
28C01
102
{ACAD_REACTORS
330
28BFC
102
}
330
28BFC
100
AcDbXrecord
280
     1
270
     1
271
     1
  0
XRECORD
  5
28C00
102
{ACAD_REACTORS
330
28BFC
102
}
330
28BFC
100
AcDbXrecord
280
     1
270
     1
271
     1
  0
XRECORD
  5
28C02
102
{ACAD_REACTORS
330
28BFC
102
}
330
28BFC
100
AcDbXrecord
280
     1
270
     1
271
     1
  0
XRECORD
  5
28BFF
102
{ACAD_REACTORS
330
28BFC
102
}
330
28BFC
100
AcDbXrecord
280
     1
270
     1
271
     1
  0
XRECORD
  5
2AB79
102
{ACAD_REACTORS
330
28BF4
102
}
330
28BF4
100
AcDbXrecord
280
     1
102
MATERIAL
148
0.0
149
0.0
149
0.0
 93
        0
 94
      127
282
     0
 72
     0
 77
     0
171
     0
175
     0
179
     0
273
     0
  0
XRECORD
  5
28BF6
102
{ACAD_REACTORS
330
28BF4
102
}
330
28BF4
100
AcDbXrecord
280
     1
270
     1
271
     1
  0
XRECORD
  5
28BF5
102
{ACAD_REACTORS
330
28BF4
102
}
330
28BF4
100
AcDbXrecord
280
     1
270
     1
271
     1
  0
XRECORD
  5
28BF9
102
{ACAD_REACTORS
330
28BF4
102
}
330
28BF4
100
AcDbXrecord
280
     1
270
     1
271
     1
  0
XRECORD
  5
28BF8
102
{ACAD_REACTORS
330
28BF4
102
}
330
28BF4
100
AcDbXrecord
280
     1
270
     1
271
     1
  0
XRECORD
  5
28BFA
102
{ACAD_REACTORS
330
28BF4
102
}
330
28BF4
100
AcDbXrecord
280
     1
270
     1
271
     1
  0
XRECORD
  5
28BF7
102
{ACAD_REACTORS
330
28BF4
102
}
330
28BF4
100
AcDbXrecord
280
     1
270
     1
271
     1
  0
XRECORD
  5
2AB7B
102
{ACAD_REACTORS
330
28C04
102
}
330
28C04
100
AcDbXrecord
280
     1
102
MATERIAL
148
0.0
149
0.0
149
0.0
 93
        0
 94
      127
282
     0
 72
     0
 77
     0
171
     0
175
     0
179
     0
273
     0
  0
XRECORD
  5
28C06
102
{ACAD_REACTORS
330
28C04
102
}
330
28C04
100
AcDbXrecord
280
     1
270
     1
271
     1
  0
XRECORD
  5
28C05
102
{ACAD_REACTORS
330
28C04
102
}
330
28C04
100
AcDbXrecord
280
     1
270
     1
271
     1
  0
XRECORD
  5
28C09
102
{ACAD_REACTORS
330
28C04
102
}
330
28C04
100
AcDbXrecord
280
     1
270
     1
271
     1
  0
XRECORD
  5
28C08
102
{ACAD_REACTORS
330
28C04
102
}
330
28C04
100
AcDbXrecord
280
     1
270
     1
271
     1
  0
XRECORD
  5
28C0A
102
{ACAD_REACTORS
330
28C04
102
}
330
28C04
100
AcDbXrecord
280
     1
270
     1
271
     1
  0
XRECORD
  5
28C07
102
{ACAD_REACTORS
330
28C04
102
}
330
28C04
100
AcDbXrecord
280
     1
270
     1
271
     1
  0
XRECORD
  5
2AB76
102
{ACAD_REACTORS
330
2AB75
102
}
330
2AB75
100
AcDbXrecord
280
     1
102
SHADEPLOT
 70
     1
102
SHADEPLOTRESLEVEL
 70
     2
102
SHADEPLOTCUSTOMDPI
 70
   200
  0
XRECORD
  5
2AB74
102
{ACAD_REACTORS
330
2AB73
102
}
330
2AB73
100
AcDbXrecord
280
     1
102
SHADEPLOT
 70
     1
102
SHADEPLOTRESLEVEL
 70
     2
102
SHADEPLOTCUSTOMDPI
 70
   200
  0
XRECORD
  5
2AB6C
102
{ACAD_REACTORS
330
2AB6B
102
}
330
2AB6B
100
AcDbXrecord
280
     1
102
SHADEPLOT
 70
     1
102
SHADEPLOTRESLEVEL
 70
     2
102
SHADEPLOTCUSTOMDPI
 70
   300
  0
XRECORD
  5
2AB6E
102
{ACAD_REACTORS
330
2AB6D
102
}
330
2AB6D
100
AcDbXrecord
280
     1
102
SHADEPLOT
 70
     1
102
SHADEPLOTRESLEVEL
 70
     2
102
SHADEPLOTCUSTOMDPI
 70
   300
  0
XRECORD
  5
2AB70
102
{ACAD_REACTORS
330
2AB6F
102
}
330
2AB6F
100
AcDbXrecord
280
     1
102
SHADEPLOT
 70
     1
102
SHADEPLOTRESLEVEL
 70
     2
102
SHADEPLOTCUSTOMDPI
 70
   300
  0
XRECORD
  5
2AB72
102
{ACAD_REACTORS
330
2AB71
102
}
330
2AB71
100
AcDbXrecord
280
     1
102
SHADEPLOT
 70
     1
102
SHADEPLOTRESLEVEL
 70
     2
102
SHADEPLOTCUSTOMDPI
 70
   300
  0
CELLSTYLEMAP
  5
2AB67
102
{ACAD_REACTORS
330
28E70
102
}
330
28E70
100
AcDbCellStyleMap
 90
        3
300
CELLSTYLE
  1
TABLEFORMAT_BEGIN
 90
        5
170
     1
 91
        0
 92
    32768
 62
   257
 93
        1
300
CONTENTFORMAT
  1
CONTENTFORMAT_BEGIN
 90
        0
 91
        0
 92
      512
 93
        0
300

 40
0.0
140
1.0
 94
        5
 62
     0
340
11
144
0.25
309
CONTENTFORMAT_END
171
     0
 94
        0
309
TABLEFORMAT_END
  1
CELLSTYLE_BEGIN
 90
        1
 91
        1
300
_TITLE
309
CELLSTYLE_END
300
CELLSTYLE
  1
TABLEFORMAT_BEGIN
 90
        5
170
     1
 91
        0
 92
        0
 62
   257
 93
        1
300
CONTENTFORMAT
  1
CONTENTFORMAT_BEGIN
 90
        0
 91
        0
 92
      512
 93
        0
300

 40
0.0
140
1.0
 94
        5
 62
     0
340
11
144
0.18
309
CONTENTFORMAT_END
171
     0
 94
        0
309
TABLEFORMAT_END
  1
CELLSTYLE_BEGIN
 90
        2
 91
        1
300
_HEADER
309
CELLSTYLE_END
300
CELLSTYLE
  1
TABLEFORMAT_BEGIN
 90
        5
170
     1
 91
        0
 92
        0
 62
   257
 93
        1
300
CONTENTFORMAT
  1
CONTENTFORMAT_BEGIN
 90
        0
 91
        0
 92
      512
 93
        0
300

 40
0.0
140
1.0
 94
        2
 62
     0
340
11
144
0.18
309
CONTENTFORMAT_END
171
     0
 94
        0
309
TABLEFORMAT_END
  1
CELLSTYLE_BEGIN
 90
        3
 91
        2
300
_DATA
309
CELLSTYLE_END
  0
XRECORD
  5
2AB7C
102
{ACAD_REACTORS
330
28E70
102
}
330
28E70
100
AcDbXrecord
280
     1
102
ACAD_ROUNDTRIP_PRE2007_TABLESTYLE
 90
      512
 91
        0
  1

 92
      512
 93
        0
  2

 94
      512
 95
        0
  3

  0
ENDSEC
  0
EOF
