  0
SECTION
  2
HEADER
  9
$ACADVER
  1
AC1015
  9
$ACADMAINTVER
 70
    18
  9
$DWGCODEPAGE
  3
ANSI_1252
  9
$INSBASE
 10
0.0
 20
0.0
 30
0.0
  9
$EXTMIN
 10
112.3859270722441
 20
119.4169943381764
 30
-0.0015258207003612
  9
$EXTMAX
 10
470.8368543996905
 20
812.2148457013707
 30
0.0000000349246008
  9
$LIMMIN
 10
0.0
 20
0.0
  9
$LIMMAX
 10
12.0
 20
9.0
  9
$ORTHOMODE
 70
     1
  9
$REGENMODE
 70
     1
  9
$FILLMODE
 70
     1
  9
$QTEXTMODE
 70
     0
  9
$MIRRTEXT
 70
     0
  9
$LTSCALE
 40
0.5
  9
$ATTMODE
 70
     1
  9
$TEXTSIZE
 40
1.0
  9
$TRACEWID
 40
0.05
  9
$TEXTSTYLE
  7
ARCHQUIK
  9
$CLAYER
  8
0
  9
$CELTYPE
  6
ByLayer
  9
$CECOLOR
 62
   256
  9
$CELTSCALE
 40
1.0
  9
$DISPSILH
 70
     0
  9
$DIMSCALE
 40
1.0
  9
$DIMASZ
 40
2.0
  9
$DIMEXO
 40
0.0625
  9
$DIMDLI
 40
0.0625
  9
$DIMRND
 40
0.0
  9
$DIMDLE
 40
0.0
  9
$DIMEXE
 40
0.0625
  9
$DIMTP
 40
0.0
  9
$DIMTM
 40
0.0
  9
$DIMTXT
 40
1.919999999999999
  9
$DIMCEN
 40
0.09
  9
$DIMTSZ
 40
0.0
  9
$DIMTOL
 70
     0
  9
$DIMLIM
 70
     0
  9
$DIMTIH
 70
     0
  9
$DIMTOH
 70
     0
  9
$DIMSE1
 70
     0
  9
$DIMSE2
 70
     0
  9
$DIMTAD
 70
     1
  9
$DIMZIN
 70
     2
  9
$DIMBLK
  1

  9
$DIMASO
 70
     1
  9
$DIMSHO
 70
     1
  9
$DIMPOST
  1

  9
$DIMAPOST
  1

  9
$DIMALT
 70
     0
  9
$DIMALTD
 70
     2
  9
$DIMALTF
 40
25.4
  9
$DIMLFAC
 40
1.0
  9
$DIMTOFL
 70
     0
  9
$DIMTVP
 40
0.0
  9
$DIMTIX
 70
     0
  9
$DIMSOXD
 70
     0
  9
$DIMSAH
 70
     0
  9
$DIMBLK1
  1

  9
$DIMBLK2
  1

  9
$DIMSTYLE
  2
Standard
  9
$DIMCLRD
 70
   256
  9
$DIMCLRE
 70
   256
  9
$DIMCLRT
 70
     7
  9
$DIMTFAC
 40
0.75
  9
$DIMGAP
 40
0.0625
  9
$DIMJUST
 70
     0
  9
$DIMSD1
 70
     0
  9
$DIMSD2
 70
     0
  9
$DIMTOLJ
 70
     1
  9
$DIMTZIN
 70
     0
  9
$DIMALTZ
 70
     0
  9
$DIMALTTZ
 70
     0
  9
$DIMUPT
 70
     0
  9
$DIMDEC
 70
     4
  9
$DIMTDEC
 70
     4
  9
$DIMALTU
 70
     2
  9
$DIMALTTD
 70
     2
  9
$DIMTXSTY
  7
Standard
  9
$DIMAUNIT
 70
     0
  9
$DIMADEC
 70
     3
  9
$DIMALTRND
 40
0.0
  9
$DIMAZIN
 70
     0
  9
$DIMDSEP
 70
    46
  9
$DIMATFIT
 70
     3
  9
$DIMFRAC
 70
     1
  9
$DIMLDRBLK
  1

  9
$DIMLUNIT
 70
     5
  9
$DIMLWD
 70
    -2
  9
$DIMLWE
 70
    -2
  9
$DIMTMOVE
 70
     0
  9
$LUNITS
 70
     2
  9
$LUPREC
 70
     4
  9
$SKETCHINC
 40
0.1
  9
$FILLETRAD
 40
0.0
  9
$AUNITS
 70
     0
  9
$AUPREC
 70
     3
  9
$MENU
  1
.
  9
$ELEVATION
 40
0.0
  9
$PELEVATION
 40
0.0
  9
$THICKNESS
 40
0.0
  9
$LIMCHECK
 70
     0
  9
$CHAMFERA
 40
0.5
  9
$CHAMFERB
 40
0.5
  9
$CHAMFERC
 40
1.0
  9
$CHAMFERD
 40
0.0
  9
$SKPOLY
 70
     0
  9
$TDCREATE
 40
2453620.458702304
  9
$TDUCREATE
 40
2453620.708702303
  9
$TDUPDATE
 40
2455630.710467917
  9
$TDUUPDATE
 40
2455630.960467916
  9
$TDINDWG
 40
2.0785526620
  9
$TDUSRTIMER
 40
2.0785517593
  9
$USRTIMER
 70
     1
  9
$ANGBASE
 50
0.0
  9
$ANGDIR
 70
     0
  9
$PDMODE
 70
    34
  9
$PDSIZE
 40
0.005
  9
$PLINEWID
 40
0.0
  9
$SPLFRAME
 70
     0
  9
$SPLINETYPE
 70
     6
  9
$SPLINESEGS
 70
     8
  9
$HANDSEED
  5
2A075
  9
$SURFTAB1
 70
     6
  9
$SURFTAB2
 70
     6
  9
$SURFTYPE
 70
     6
  9
$SURFU
 70
     6
  9
$SURFV
 70
     6
  9
$UCSBASE
  2

  9
$UCSNAME
  2

  9
$UCSORG
 10
0.0
 20
0.0
 30
0.0
  9
$UCSXDIR
 10
1.0
 20
0.0
 30
0.0
  9
$UCSYDIR
 10
0.0
 20
1.0
 30
0.0
  9
$UCSORTHOREF
  2

  9
$UCSORTHOVIEW
 70
     0
  9
$UCSORGTOP
 10
0.0
 20
0.0
 30
0.0
  9
$UCSORGBOTTOM
 10
0.0
 20
0.0
 30
0.0
  9
$UCSORGLEFT
 10
0.0
 20
0.0
 30
0.0
  9
$UCSORGRIGHT
 10
0.0
 20
0.0
 30
0.0
  9
$UCSORGFRONT
 10
0.0
 20
0.0
 30
0.0
  9
$UCSORGBACK
 10
0.0
 20
0.0
 30
0.0
  9
$PUCSBASE
  2

  9
$PUCSNAME
  2

  9
$PUCSORG
 10
0.0
 20
0.0
 30
0.0
  9
$PUCSXDIR
 10
1.0
 20
0.0
 30
0.0
  9
$PUCSYDIR
 10
0.0
 20
1.0
 30
0.0
  9
$PUCSORTHOREF
  2

  9
$PUCSORTHOVIEW
 70
     0
  9
$PUCSORGTOP
 10
0.0
 20
0.0
 30
0.0
  9
$PUCSORGBOTTOM
 10
0.0
 20
0.0
 30
0.0
  9
$PUCSORGLEFT
 10
0.0
 20
0.0
 30
0.0
  9
$PUCSORGRIGHT
 10
0.0
 20
0.0
 30
0.0
  9
$PUCSORGFRONT
 10
0.0
 20
0.0
 30
0.0
  9
$PUCSORGBACK
 10
0.0
 20
0.0
 30
0.0
  9
$USERI1
 70
     0
  9
$USERI2
 70
     0
  9
$USERI3
 70
     0
  9
$USERI4
 70
     0
  9
$USERI5
 70
     0
  9
$USERR1
 40
24.0
  9
$USERR2
 40
0.0
  9
$USERR3
 40
22.0
  9
$USERR4
 40
0.0
  9
$USERR5
 40
0.0
  9
$WORLDVIEW
 70
     1
  9
$SHADEDGE
 70
     3
  9
$SHADEDIF
 70
    70
  9
$TILEMODE
 70
     1
  9
$MAXACTVP
 70
    64
  9
$PINSBASE
 10
0.0
 20
0.0
 30
0.0
  9
$PLIMCHECK
 70
     0
  9
$PEXTMIN
 10
0.0
 20
0.0
 30
0.0
  9
$PEXTMAX
 10
0.0
 20
0.0
 30
0.0
  9
$PLIMMIN
 10
0.0
 20
0.0
  9
$PLIMMAX
 10
12.0
 20
9.0
  9
$UNITMODE
 70
     0
  9
$VISRETAIN
 70
     1
  9
$PLINEGEN
 70
     0
  9
$PSLTSCALE
 70
     1
  9
$TREEDEPTH
 70
  3020
  9
$CMLSTYLE
  2
Standard
  9
$CMLJUST
 70
     0
  9
$CMLSCALE
 40
1.0
  9
$PROXYGRAPHICS
 70
     1
  9
$MEASUREMENT
 70
     0
  9
$CELWEIGHT
370
    -1
  9
$ENDCAPS
280
     0
  9
$JOINSTYLE
280
     0
  9
$LWDISPLAY
290
     0
  9
$INSUNITS
 70
     1
  9
$HYPERLINKBASE
  1

  9
$STYLESHEET
  1

  9
$XEDIT
290
     1
  9
$CEPSNTYPE
380
     0
  9
$PSTYLEMODE
290
     1
  9
$FINGERPRINTGUID
  2
{FDEAD576-A652-11D2-9A35-0060089B3A3F}
  9
$VERSIONGUID
  2
{6E7E00F2-6834-4B35-9F20-1C19FD16439D}
  9
$EXTNAMES
290
     1
  9
$PSVPSCALE
 40
0.0
  9
$OLESTARTUP
290
     0
  0
ENDSEC
  0
SECTION
  2
CLASSES
  0
CLASS
  1
ACDBDICTIONARYWDFLT
  2
AcDbDictionaryWithDefault
  3
ObjectDBX Classes
 90
        0
280
     0
281
     0
  0
CLASS
  1
ACDBPLACEHOLDER
  2
AcDbPlaceHolder
  3
ObjectDBX Classes
 90
        0
280
     0
281
     0
  0
CLASS
  1
LAYOUT
  2
AcDbLayout
  3
ObjectDBX Classes
 90
        0
280
     0
281
     0
  0
CLASS
  1
PLOTSETTINGS
  2
AcDbPlotSettings
  3
ObjectDBX Classes
 90
        0
280
     0
281
     0
  0
CLASS
  1
AMLOADER
  2
AMLoader
  3
AMAcad
 90
        0
280
     0
281
     0
  0
CLASS
  1
DICTIONARYVAR
  2
AcDbDictionaryVar
  3
ObjectDBX Classes
 90
        0
280
     0
281
     0
  0
CLASS
  1
SORTENTSTABLE
  2
AcDbSortentsTable
  3
ObjectDBX Classes
 90
        0
280
     0
281
     0
  0
CLASS
  1
MATERIAL
  2
AcDbMaterial
  3
ObjectDBX Classes
 90
     1153
280
     0
281
     0
  0
CLASS
  1
VISUALSTYLE
  2
AcDbVisualStyle
  3
ObjectDBX Classes
 90
     4095
280
     0
281
     0
  0
CLASS
  1
TABLESTYLE
  2
AcDbTableStyle
  3
ObjectDBX Classes
 90
     4095
280
     0
281
     0
  0
CLASS
  1
SCALE
  2
AcDbScale
  3
ObjectDBX Classes
 90
     1153
280
     0
281
     0
  0
CLASS
  1
MLEADERSTYLE
  2
AcDbMLeaderStyle
  3
ACDB_MLEADERSTYLE_CLASS
 90
     4095
280
     0
281
     0
  0
CLASS
  1
CELLSTYLEMAP
  2
AcDbCellStyleMap
  3
ObjectDBX Classes
 90
     1152
280
     0
281
     0
  0
CLASS
  1
DIMASSOC
  2
AcDbDimAssoc
  3
"AcDbDimAssoc|Product Desc:     AcDim ARX App For Dimension|Company:          Autodesk, Inc.|WEB Address:      www.autodesk.com"
 90
    32768
280
     0
281
     0
  0
ENDSEC
  0
SECTION
  2
TABLES
  0
TABLE
  2
VPORT
  5
8
102
{ACAD_XDICTIONARY
360
29223
102
}
330
0
100
AcDbSymbolTable
 70
     1
  0
VPORT
  5
28BDD
330
8
100
AcDbSymbolTableRecord
100
AcDbViewportTableRecord
  2
*Active
 70
     0
 10
0.0
 20
0.0
 11
1.0
 21
1.0
 12
291.6113907359673
 22
465.8159200197736
 13
0.0
 23
0.0
 14
1.0
 24
1.0
 15
0.5
 25
0.5
 16
0.0
 26
0.0
 36
1.0
 17
0.0
 27
0.0
 37
0.0
 40
698.6690195950858
 41
1.596888260254596
 42
50.0
 43
0.0
 44
0.0
 50
0.0
 51
0.0
 71
     0
 72
  1000
 73
     1
 74
     0
 75
     0
 76
     0
 77
     0
 78
     0
281
     0
 65
     1
110
0.0
120
0.0
130
0.0
111
1.0
121
0.0
131
0.0
112
0.0
122
1.0
132
0.0
 79
     0
146
0.0
  0
ENDTAB
  0
TABLE
  2
LTYPE
  5
5
330
0
100
AcDbSymbolTable
 70
     2
  0
LTYPE
  5
14
330
5
100
AcDbSymbolTableRecord
100
AcDbLinetypeTableRecord
  2
ByBlock
 70
     0
  3

 72
    65
 73
     0
 40
0.0
  0
LTYPE
  5
15
330
5
100
AcDbSymbolTableRecord
100
AcDbLinetypeTableRecord
  2
ByLayer
 70
     0
  3

 72
    65
 73
     0
 40
0.0
  0
LTYPE
  5
16
330
5
100
AcDbSymbolTableRecord
100
AcDbLinetypeTableRecord
  2
Continuous
 70
     0
  3
Solid line
 72
    65
 73
     0
 40
0.0
  0
LTYPE
  5
2924A
330
5
100
AcDbSymbolTableRecord
100
AcDbLinetypeTableRecord
  2
DASHED
 70
     0
  3
Dashed __ __ __ __ __ __ __ __ __ __ __ __ __ _
 72
    65
 73
     2
 40
0.75
 49
0.5
 74
     0
 49
-0.25
 74
     0
  0
ENDTAB
  0
TABLE
  2
LAYER
  5
2
102
{ACAD_XDICTIONARY
360
13579
102
}
330
0
100
AcDbSymbolTable
 70
     9
  0
LAYER
  5
10
102
{ACAD_XDICTIONARY
360
28E32
102
}
330
2
100
AcDbSymbolTableRecord
100
AcDbLayerTableRecord
  2
0
 70
     0
 62
     7
  6
Continuous
370
    -3
390
F
  0
LAYER
  5
1462C
102
{ACAD_XDICTIONARY
360
28E36
102
}
330
2
100
AcDbSymbolTableRecord
100
AcDbLayerTableRecord
  2
Pel_TXT
 70
     0
 62
   255
  6
Continuous
370
    -3
390
F
  0
LAYER
  5
1462D
102
{ACAD_XDICTIONARY
360
28E38
102
}
330
2
100
AcDbSymbolTableRecord
100
AcDbLayerTableRecord
  2
Pel_Frame_Outside
 70
     0
 62
    84
  6
Continuous
370
    -3
390
F
  0
LAYER
  5
1462E
102
{ACAD_XDICTIONARY
360
28E3A
102
}
330
2
100
AcDbSymbolTableRecord
100
AcDbLayerTableRecord
  2
Pel_Sash_Outside
 70
     0
 62
    84
  6
Continuous
370
    -3
390
F
  0
LAYER
  5
15439
102
{ACAD_XDICTIONARY
360
28E4A
102
}
330
2
100
AcDbSymbolTableRecord
100
AcDbLayerTableRecord
  2
Pel_Points
 70
     0
 62
     7
  6
Continuous
290
     0
370
    -3
390
F
  0
LAYER
  5
19873
102
{ACAD_XDICTIONARY
360
28E4C
102
}
330
2
100
AcDbSymbolTableRecord
100
AcDbLayerTableRecord
  2
Pel_Muntin_AS
 70
     0
 62
    84
  6
Continuous
370
    -3
390
F
  0
LAYER
  5
2924B
102
{ACAD_XDICTIONARY
360
2924C
102
}
330
2
100
AcDbSymbolTableRecord
100
AcDbLayerTableRecord
  2
Pel_Hinging
 70
     0
 62
   132
  6
DASHED
370
    -3
390
F
  0
LAYER
  5
2924D
102
{ACAD_XDICTIONARY
360
2924E
102
}
330
2
100
AcDbSymbolTableRecord
100
AcDbLayerTableRecord
  2
Pel_Sash_Inside
 70
     0
 62
     3
  6
Continuous
370
    -3
390
F
  0
ENDTAB
  0
TABLE
  2
STYLE
  5
3
330
0
100
AcDbSymbolTable
 70
     2
  0
STYLE
  5
11
330
3
100
AcDbSymbolTableRecord
100
AcDbTextStyleTableRecord
  2
Standard
 70
     0
 40
0.0
 41
1.0
 50
0.0
 71
     0
 42
0.2
  3
ARIAL.TTF
  4

1001
ACAD
1000
Arial
1071
       34
  0
STYLE
  5
1536F
330
3
100
AcDbSymbolTableRecord
100
AcDbTextStyleTableRecord
  2
ARCHQUIK
 70
     0
 40
0.0
 41
1.0
 50
0.0
 71
     0
 42
1.0
  3
archquik.shx
  4

  0
ENDTAB
  0
TABLE
  2
VIEW
  5
6
330
0
100
AcDbSymbolTable
 70
     1
  0
VIEW
  5
121BB
330
6
100
AcDbSymbolTableRecord
100
AcDbViewTableRecord
  2
org
 70
     0
 40
111.2574309029219
 10
571.8869122333773
 20
70.95957836411844
 41
161.9957098311775
 11
0.0
 21
0.0
 31
1.0
 12
0.0
 22
0.0
 32
0.0
 42
50.0
 43
0.0
 44
0.0
 50
0.0
 71
     0
281
     0
 72
     1
110
0.0
120
0.0
130
0.0
111
1.0
121
0.0
131
0.0
112
0.0
122
1.0
132
0.0
 79
     0
146
0.0
  0
ENDTAB
  0
TABLE
  2
UCS
  5
7
330
0
100
AcDbSymbolTable
 70
     0
  0
ENDTAB
  0
TABLE
  2
APPID
  5
9
330
0
100
AcDbSymbolTable
 70
    19
  0
APPID
  5
12
330
9
100
AcDbSymbolTableRecord
100
AcDbRegAppTableRecord
  2
ACAD
 70
     0
  0
APPID
  5
1B8
330
9
100
AcDbSymbolTableRecord
100
AcDbRegAppTableRecord
  2
AMAcad
 70
     0
  0
APPID
  5
FBF
330
9
100
AcDbSymbolTableRecord
100
AcDbRegAppTableRecord
  2
ADE
 70
     0
  0
APPID
  5
1010
330
9
100
AcDbSymbolTableRecord
100
AcDbRegAppTableRecord
  2
DCO15
 70
     0
  0
APPID
  5
2B00
330
9
100
AcDbSymbolTableRecord
100
AcDbRegAppTableRecord
  2
ADCADD_ZZ
 70
     0
  0
APPID
  5
2B01
330
9
100
AcDbSymbolTableRecord
100
AcDbRegAppTableRecord
  2
SDSK_PMN
 70
     0
  0
APPID
  5
EE18
330
9
100
AcDbSymbolTableRecord
100
AcDbRegAppTableRecord
  2
GENIUS_GENODEF_13
 70
     0
  0
APPID
  5
EE19
330
9
100
AcDbSymbolTableRecord
100
AcDbRegAppTableRecord
  2
GENIUS_GENOBJ-N-FIL_13
 70
     0
  0
APPID
  5
EE1A
330
9
100
AcDbSymbolTableRecord
100
AcDbRegAppTableRecord
  2
GENIUS_GENDTOL_13
 70
     0
  0
APPID
  5
EE1B
330
9
100
AcDbSymbolTableRecord
100
AcDbRegAppTableRecord
  2
AVE_RENDER
 70
     0
  0
APPID
  5
EE1C
330
9
100
AcDbSymbolTableRecord
100
AcDbRegAppTableRecord
  2
AVE_ENTITY_MATERIAL
 70
     0
  0
APPID
  5
EE1D
330
9
100
AcDbSymbolTableRecord
100
AcDbRegAppTableRecord
  2
AVE_FINISH
 70
     0
  0
APPID
  5
EE1E
330
9
100
AcDbSymbolTableRecord
100
AcDbRegAppTableRecord
  2
AVE_MATERIAL
 70
     0
  0
APPID
  5
EE1F
330
9
100
AcDbSymbolTableRecord
100
AcDbRegAppTableRecord
  2
AVE_GLOBAL
 70
     0
  0
APPID
  5
28C42
330
9
100
AcDbSymbolTableRecord
100
AcDbRegAppTableRecord
  2
ACAD_MLEADERVER
 70
     0
  0
APPID
  5
28C5D
330
9
100
AcDbSymbolTableRecord
100
AcDbRegAppTableRecord
  2
ACAD_PSEXT
 70
     0
  0
APPID
  5
28C5E
330
9
100
AcDbSymbolTableRecord
100
AcDbRegAppTableRecord
  2
ACAD_DSTYLE_DIMJAG
 70
     0
  0
APPID
  5
28C5F
330
9
100
AcDbSymbolTableRecord
100
AcDbRegAppTableRecord
  2
ACAD_DSTYLE_DIMTALN
 70
     0
  0
APPID
  5
28CF2
330
9
100
AcDbSymbolTableRecord
100
AcDbRegAppTableRecord
  2
AcAecLayerStandard
 70
     0
  0
ENDTAB
  0
TABLE
  2
DIMSTYLE
  5
A
330
0
100
AcDbSymbolTable
 70
     1
100
AcDbDimStyleTable
 71
     1
340
2A01D
  0
DIMSTYLE
105
2A01D
330
A
100
AcDbSymbolTableRecord
100
AcDbDimStyleTableRecord
  2
Standard
 70
     0
 41
0.125
 43
0.0625
 44
0.0625
 73
     0
 74
     0
 77
     1
 78
     2
140
0.09375
146
0.75
147
0.0625
176
   256
177
   256
178
     7
179
     3
276
     1
277
     5
279
     2
340
11
1001
ACAD_DSTYLE_DIMJAG
1070
   388
1040
1.5
1001
ACAD_DSTYLE_DIMTALN
1070
   392
1070
     0
  0
ENDTAB
  0
TABLE
  2
BLOCK_RECORD
  5
1
330
0
100
AcDbSymbolTable
 70
    31
  0
BLOCK_RECORD
  5
1F
102
{ACAD_XDICTIONARY
360
12221
102
}
330
1
100
AcDbSymbolTableRecord
100
AcDbBlockTableRecord
  2
*Model_Space
340
22
  0
BLOCK_RECORD
  5
13559
330
1
100
AcDbSymbolTableRecord
100
AcDbBlockTableRecord
  2
*Paper_Space
340
1355A
  0
BLOCK_RECORD
  5
149C3
330
1
100
AcDbSymbolTableRecord
100
AcDbBlockTableRecord
  2
341
340
0
102
{BLKREFS
331
1F465
331
1F467
331
1F4A7
331
1F4A8
331
1F4AA
331
1FA3F
102
}
  0
BLOCK_RECORD
  5
1571D
330
1
100
AcDbSymbolTableRecord
100
AcDbBlockTableRecord
  2
342
340
0
102
{BLKREFS
331
1F466
331
1F4A9
331
1F4AE
331
1FA55
331
29EA4
331
29F00
102
}
  0
BLOCK_RECORD
  5
19861
102
{ACAD_XDICTIONARY
360
1F5D3
102
}
330
1
100
AcDbSymbolTableRecord
100
AcDbBlockTableRecord
  2
E
340
0
102
{BLKREFS
331
1F3BE
331
1F3C9
331
1F3CB
331
1F3CC
331
1F3CE
331
28B8D
331
29FAA
331
29FAB
331
29FAC
331
29FAD
331
29FAE
331
29FAF
331
29FB0
331
29FB1
331
29FB2
331
29FB3
331
29FB4
331
29FB5
331
29FB6
331
29FB7
331
29FB8
331
29FB9
331
29FBA
331
29FBB
331
29FBC
331
29FBD
331
2A031
331
2A032
102
}
1001
ACAD
1000
DesignCenter Data
1002
{
1070
     1
1070
     1
1002
}
  0
BLOCK_RECORD
  5
292D6
102
{ACAD_XDICTIONARY
360
29302
102
}
330
1
100
AcDbSymbolTableRecord
100
AcDbBlockTableRecord
  2
ASPCICM2-2973T
340
0
102
{BLKREFS
331
29306
102
}
1001
ACAD
1000
DesignCenter Data
1002
{
1070
     1
1070
     1
1002
}
  0
BLOCK_RECORD
  5
29307
102
{ACAD_XDICTIONARY
360
2932D
102
}
330
1
100
AcDbSymbolTableRecord
100
AcDbBlockTableRecord
  2
ASPCICM2-2971T
340
0
102
{BLKREFS
331
29331
102
}
1001
ACAD
1000
DesignCenter Data
1002
{
1070
     1
1070
     1
1002
}
  0
BLOCK_RECORD
  5
29332
102
{ACAD_XDICTIONARY
360
29358
102
}
330
1
100
AcDbSymbolTableRecord
100
AcDbBlockTableRecord
  2
ASPCICM2-2965T
340
0
102
{BLKREFS
331
2935C
102
}
1001
ACAD
1000
DesignCenter Data
1002
{
1070
     1
1070
     1
1002
}
  0
BLOCK_RECORD
  5
2935D
102
{ACAD_XDICTIONARY
360
2937D
102
}
330
1
100
AcDbSymbolTableRecord
100
AcDbBlockTableRecord
  2
ASPCICM2-2959T
340
0
102
{BLKREFS
331
29381
102
}
1001
ACAD
1000
DesignCenter Data
1002
{
1070
     1
1070
     1
1002
}
  0
BLOCK_RECORD
  5
29382
102
{ACAD_XDICTIONARY
360
293A2
102
}
330
1
100
AcDbSymbolTableRecord
100
AcDbBlockTableRecord
  2
ASPCICM2-2953T
340
0
102
{BLKREFS
331
293A6
102
}
1001
ACAD
1000
DesignCenter Data
1002
{
1070
     1
1070
     1
1002
}
  0
BLOCK_RECORD
  5
293A7
102
{ACAD_XDICTIONARY
360
293C1
102
}
330
1
100
AcDbSymbolTableRecord
100
AcDbBlockTableRecord
  2
ASPCICM2-2947T
340
0
102
{BLKREFS
331
293C5
102
}
1001
ACAD
1000
DesignCenter Data
1002
{
1070
     1
1070
     1
1002
}
  0
BLOCK_RECORD
  5
293C6
102
{ACAD_XDICTIONARY
360
293E0
102
}
330
1
100
AcDbSymbolTableRecord
100
AcDbBlockTableRecord
  2
ASPCICM2-2941T
340
0
102
{BLKREFS
331
293E4
102
}
1001
ACAD
1000
DesignCenter Data
1002
{
1070
     1
1070
     1
1002
}
  0
BLOCK_RECORD
  5
293E5
102
{ACAD_XDICTIONARY
360
293FF
102
}
330
1
100
AcDbSymbolTableRecord
100
AcDbBlockTableRecord
  2
ASPCICM2-2935T
340
0
102
{BLKREFS
331
29403
102
}
1001
ACAD
1000
DesignCenter Data
1002
{
1070
     1
1070
     1
1002
}
  0
BLOCK_RECORD
  5
29404
102
{ACAD_XDICTIONARY
360
29418
102
}
330
1
100
AcDbSymbolTableRecord
100
AcDbBlockTableRecord
  2
ASPCICM2-2535T
340
0
102
{BLKREFS
331
2941C
102
}
1001
ACAD
1000
DesignCenter Data
1002
{
1070
     1
1070
     1
1002
}
  0
BLOCK_RECORD
  5
2941D
102
{ACAD_XDICTIONARY
360
29431
102
}
330
1
100
AcDbSymbolTableRecord
100
AcDbBlockTableRecord
  2
ASPCICM2-2335T
340
0
102
{BLKREFS
331
29435
102
}
1001
ACAD
1000
DesignCenter Data
1002
{
1070
     1
1070
     1
1002
}
  0
BLOCK_RECORD
  5
29436
102
{ACAD_XDICTIONARY
360
2944A
102
}
330
1
100
AcDbSymbolTableRecord
100
AcDbBlockTableRecord
  2
ASPCICM2-2135T
340
0
102
{BLKREFS
331
2944E
102
}
1001
ACAD
1000
DesignCenter Data
1002
{
1070
     1
1070
     1
1002
}
  0
BLOCK_RECORD
  5
2944F
102
{ACAD_XDICTIONARY
360
29463
102
}
330
1
100
AcDbSymbolTableRecord
100
AcDbBlockTableRecord
  2
ASPCICM2-2147T
340
0
102
{BLKREFS
331
29467
102
}
1001
ACAD
1000
DesignCenter Data
1002
{
1070
     1
1070
     1
1002
}
  0
BLOCK_RECORD
  5
2946A
102
{ACAD_XDICTIONARY
360
2947F
102
}
330
1
100
AcDbSymbolTableRecord
100
AcDbBlockTableRecord
  2
ASPCICM2-2141T
340
0
102
{BLKREFS
331
29483
102
}
1001
ACAD
1000
DesignCenter Data
1002
{
1070
     1
1070
     1
1002
}
  0
BLOCK_RECORD
  5
29484
102
{ACAD_XDICTIONARY
360
2949C
102
}
330
1
100
AcDbSymbolTableRecord
100
AcDbBlockTableRecord
  2
ASPCICM2-2153T
340
0
102
{BLKREFS
331
294A0
102
}
1001
ACAD
1000
DesignCenter Data
1002
{
1070
     1
1070
     1
1002
}
  0
BLOCK_RECORD
  5
294A1
102
{ACAD_XDICTIONARY
360
294B9
102
}
330
1
100
AcDbSymbolTableRecord
100
AcDbBlockTableRecord
  2
ASPCICM2-2159T
340
0
102
{BLKREFS
331
294BD
102
}
1001
ACAD
1000
DesignCenter Data
1002
{
1070
     1
1070
     1
1002
}
  0
BLOCK_RECORD
  5
294BE
102
{ACAD_XDICTIONARY
360
294DA
102
}
330
1
100
AcDbSymbolTableRecord
100
AcDbBlockTableRecord
  2
ASPCICM2-2165T
340
0
102
{BLKREFS
331
294DE
102
}
1001
ACAD
1000
DesignCenter Data
1002
{
1070
     1
1070
     1
1002
}
  0
BLOCK_RECORD
  5
294DF
102
{ACAD_XDICTIONARY
360
294F3
102
}
330
1
100
AcDbSymbolTableRecord
100
AcDbBlockTableRecord
  2
ASPCICM2-2341T
340
0
102
{BLKREFS
331
294F7
102
}
1001
ACAD
1000
DesignCenter Data
1002
{
1070
     1
1070
     1
1002
}
  0
BLOCK_RECORD
  5
294F8
102
{ACAD_XDICTIONARY
360
2950C
102
}
330
1
100
AcDbSymbolTableRecord
100
AcDbBlockTableRecord
  2
ASPCICM2-2347T
340
0
102
{BLKREFS
331
29510
102
}
1001
ACAD
1000
DesignCenter Data
1002
{
1070
     1
1070
     1
1002
}
  0
BLOCK_RECORD
  5
29511
102
{ACAD_XDICTIONARY
360
29527
102
}
330
1
100
AcDbSymbolTableRecord
100
AcDbBlockTableRecord
  2
ASPCICM2-2353T
340
0
102
{BLKREFS
331
2952B
102
}
1001
ACAD
1000
DesignCenter Data
1002
{
1070
     1
1070
     1
1002
}
  0
BLOCK_RECORD
  5
2952C
102
{ACAD_XDICTIONARY
360
29542
102
}
330
1
100
AcDbSymbolTableRecord
100
AcDbBlockTableRecord
  2
ASPCICM2-2359T
340
0
102
{BLKREFS
331
29546
102
}
1001
ACAD
1000
DesignCenter Data
1002
{
1070
     1
1070
     1
1002
}
  0
BLOCK_RECORD
  5
29547
102
{ACAD_XDICTIONARY
360
29561
102
}
330
1
100
AcDbSymbolTableRecord
100
AcDbBlockTableRecord
  2
ASPCICM2-2365T
340
0
102
{BLKREFS
331
29565
102
}
1001
ACAD
1000
DesignCenter Data
1002
{
1070
     1
1070
     1
1002
}
  0
BLOCK_RECORD
  5
29566
102
{ACAD_XDICTIONARY
360
2957A
102
}
330
1
100
AcDbSymbolTableRecord
100
AcDbBlockTableRecord
  2
ASPCICM2-2541T
340
0
102
{BLKREFS
331
2957E
102
}
1001
ACAD
1000
DesignCenter Data
1002
{
1070
     1
1070
     1
1002
}
  0
BLOCK_RECORD
  5
2957F
102
{ACAD_XDICTIONARY
360
29593
102
}
330
1
100
AcDbSymbolTableRecord
100
AcDbBlockTableRecord
  2
ASPCICM2-2547T
340
0
102
{BLKREFS
331
29597
102
}
1001
ACAD
1000
DesignCenter Data
1002
{
1070
     1
1070
     1
1002
}
  0
BLOCK_RECORD
  5
29598
102
{ACAD_XDICTIONARY
360
295B0
102
}
330
1
100
AcDbSymbolTableRecord
100
AcDbBlockTableRecord
  2
ASPCICM2-2553T
340
0
102
{BLKREFS
331
295B4
102
}
1001
ACAD
1000
DesignCenter Data
1002
{
1070
     1
1070
     1
1002
}
  0
BLOCK_RECORD
  5
295B5
102
{ACAD_XDICTIONARY
360
295CD
102
}
330
1
100
AcDbSymbolTableRecord
100
AcDbBlockTableRecord
  2
ASPCICM2-2559T
340
0
102
{BLKREFS
331
295D1
102
}
1001
ACAD
1000
DesignCenter Data
1002
{
1070
     1
1070
     1
1002
}
  0
BLOCK_RECORD
  5
295D2
102
{ACAD_XDICTIONARY
360
295EE
102
}
330
1
100
AcDbSymbolTableRecord
100
AcDbBlockTableRecord
  2
ASPCICM2-2565T
340
0
102
{BLKREFS
331
295F2
102
}
1001
ACAD
1000
DesignCenter Data
1002
{
1070
     1
1070
     1
1002
}
  0
BLOCK_RECORD
  5
295F3
102
{ACAD_XDICTIONARY
360
2960F
102
}
330
1
100
AcDbSymbolTableRecord
100
AcDbBlockTableRecord
  2
ASPCICM2-2571T
340
0
102
{BLKREFS
331
29613
102
}
1001
ACAD
1000
DesignCenter Data
1002
{
1070
     1
1070
     1
1002
}
  0
BLOCK_RECORD
  5
29614
102
{ACAD_XDICTIONARY
360
29634
102
}
330
1
100
AcDbSymbolTableRecord
100
AcDbBlockTableRecord
  2
ASPCICM2-2573T
340
0
102
{BLKREFS
331
29638
102
}
1001
ACAD
1000
DesignCenter Data
1002
{
1070
     1
1070
     1
1002
}
  0
ENDTAB
  0
ENDSEC
  0
SECTION
  2
BLOCKS
  0
BLOCK
  5
20
330
1F
100
AcDbEntity
  8
0
100
AcDbBlockBegin
  2
*Model_Space
 70
     0
 10
0.0
 20
0.0
 30
0.0
  3
*Model_Space
  1

  0
ENDBLK
  5
21
330
1F
100
AcDbEntity
  8
0
100
AcDbBlockEnd
  0
BLOCK
  5
1355B
330
13559
100
AcDbEntity
 67
     1
  8
0
100
AcDbBlockBegin
  2
*Paper_Space
 70
     0
 10
0.0
 20
0.0
 30
0.0
  3
*Paper_Space
  1

  0
ENDBLK
  5
1355C
330
13559
100
AcDbEntity
 67
     1
  8
0
100
AcDbBlockEnd
  0
BLOCK
  5
149C4
330
149C3
100
AcDbEntity
  8
0
100
AcDbBlockBegin
  2
341
 70
     0
 10
0.0
 20
0.0
 30
0.0
  3
341
  1

  0
TEXT
  5
29FDC
330
149C3
100
AcDbEntity
  8
Pel_TXT
100
AcDbText
 10
0.1281
 20
-0.025
 30
0.0
 40
0.05
  1
/
100
AcDbText
  0
TEXT
  5
29FDD
330
149C3
100
AcDbEntity
  8
Pel_TXT
100
AcDbText
 10
0.0881
 20
-0.0125
 30
0.0
 40
0.05
  1
3
100
AcDbText
  0
TEXT
  5
29FDE
330
149C3
100
AcDbEntity
  8
Pel_TXT
100
AcDbText
 10
0.1881
 20
-0.03125
 30
0.0
 40
0.07
  1
"
100
AcDbText
  0
TEXT
  5
29FDF
330
149C3
100
AcDbEntity
  8
Pel_TXT
100
AcDbText
 10
0.1531
 20
-0.0375
 30
0.0
 40
0.05
  1
4
100
AcDbText
  0
POINT
  5
29FE0
330
149C3
100
AcDbEntity
  8
Pel_Points
100
AcDbPoint
 10
0.0
 20
0.0
 30
0.0
  0
ENDBLK
  5
149C9
330
149C3
100
AcDbEntity
  8
0
100
AcDbBlockEnd
  0
BLOCK
  5
1571E
330
1571D
100
AcDbEntity
  8
0
100
AcDbBlockBegin
  2
342
 70
     0
 10
0.0
 20
0.0
 30
0.0
  3
342
  1

  0
TEXT
  5
29FE1
330
1571D
100
AcDbEntity
  8
Pel_TXT
100
AcDbText
 10
0.1075
 20
-0.0125
 30
0.0
 40
0.05
  1
3
100
AcDbText
  0
TEXT
  5
29FE2
330
1571D
100
AcDbEntity
  8
Pel_TXT
100
AcDbText
 10
0.1526362781298042
 20
-0.025
 30
0.0
 40
0.05
  1
/
100
AcDbText
  0
TEXT
  5
29FE3
330
1571D
100
AcDbEntity
  8
Pel_TXT
100
AcDbText
 10
0.1825000000000001
 20
-0.0375
 30
0.0
 40
0.05
  1
4
100
AcDbText
  0
TEXT
  5
29FE4
330
1571D
100
AcDbEntity
  8
Pel_TXT
100
AcDbText
 10
0.2175000000000001
 20
-0.03125
 30
0.0
 40
0.07
  1
"
100
AcDbText
  0
POINT
  5
29FE5
330
1571D
100
AcDbEntity
  8
Pel_Points
100
AcDbPoint
 10
0.0
 20
0.0
 30
0.0
  0
ENDBLK
  5
15723
330
1571D
100
AcDbEntity
  8
0
100
AcDbBlockEnd
  0
BLOCK
  5
19862
330
19861
100
AcDbEntity
  8
0
100
AcDbBlockBegin
  2
E
 70
     0
 10
0.0
 20
0.0
 30
0.0
  3
E
  1

  0
TEXT
  5
2928D
330
19861
100
AcDbEntity
  8
Pel_TXT
100
AcDbText
 10
0.03523
 20
0.0
 30
0.0
 40
0.05989583525
  1
E
 72
     4
 11
0.0631350855905525
 21
0.029947917625
 31
0.0
100
AcDbText
  0
POINT
  5
2928E
330
19861
100
AcDbEntity
  8
Pel_Points
100
AcDbPoint
 10
0.0
 20
0.0
 30
0.0
  0
POINT
  5
2928F
330
19861
100
AcDbEntity
  8
Pel_Points
100
AcDbPoint
 10
0.042187409708485
 20
-0.015625
 30
0.0
  0
POINT
  5
29290
330
19861
100
AcDbEntity
  8
Pel_Points
100
AcDbPoint
 10
0.0
 20
0.075536763620025
 30
0.0
  0
ENDBLK
  5
19864
330
19861
100
AcDbEntity
  8
0
100
AcDbBlockEnd
  0
BLOCK
  5
29304
330
292D6
100
AcDbEntity
  8
0
100
AcDbBlockBegin
  2
ASPCICM2-2973T
 70
     0
 10
0.0
 20
0.0
 30
0.0
  3
ASPCICM2-2973T
  1

  0
LWPOLYLINE
  5
292D7
330
292D6
100
AcDbEntity
  8
Pel_Frame_Outside
100
AcDbPolyline
 90
        8
 70
     1
 43
0.0
 10
29.0
 20
0.0
 10
29.0
 20
72.999999
 10
0.0
 20
72.999999
 10
0.0
 20
0.0
 10
29.0
 20
0.0
 10
29.0
 20
72.999999
 10
58.0
 20
72.999999
 10
58.0
 20
0.0
  0
LWPOLYLINE
  5
292D8
330
292D6
100
AcDbEntity
  8
Pel_Sash_Outside
100
AcDbPolyline
 90
        4
 70
     1
 43
0.0
 10
30.625
 20
1.624999999999999
 10
30.625
 20
71.374999
 10
56.375
 20
71.374999
 10
56.375
 20
1.624999999999999
  0
LWPOLYLINE
  5
292D9
330
292D6
100
AcDbEntity
  8
Pel_Sash_Inside
100
AcDbPolyline
 90
        4
 70
     1
 43
0.0
 10
33.625
 20
4.624999999999999
 10
33.625
 20
68.374999
 10
53.375
 20
68.374999
 10
53.375
 20
4.624999999999999
  0
LWPOLYLINE
  5
292DA
330
292D6
100
AcDbEntity
  8
Pel_Hinging
 48
6.0
100
AcDbPolyline
 90
        3
 70
     0
 43
0.0
 10
30.625
 20
1.624999999999999
 10
56.375
 20
35.5000005
 10
30.625
 20
71.374999
  0
LWPOLYLINE
  5
292DB
330
292D6
100
AcDbEntity
  8
Pel_Sash_Outside
100
AcDbPolyline
 90
        4
 70
     1
 43
0.0
 10
1.625
 20
71.374999
 10
27.375
 20
71.374999
 10
27.375
 20
1.624999999999999
 10
1.625
 20
1.624999999999999
  0
LWPOLYLINE
  5
292DC
330
292D6
100
AcDbEntity
  8
Pel_Sash_Inside
100
AcDbPolyline
 90
        4
 70
     1
 43
0.0
 10
24.375
 20
68.374999
 10
24.375
 20
4.624999999999999
 10
4.625
 20
4.624999999999999
 10
4.625
 20
68.374999
  0
LWPOLYLINE
  5
292DD
330
292D6
100
AcDbEntity
  8
Pel_Hinging
 48
6.0
100
AcDbPolyline
 90
        3
 70
     0
 43
0.0
 10
27.375
 20
1.624999999999999
 10
1.625
 20
35.5000005
 10
27.375
 20
71.374999
  0
LWPOLYLINE
  5
292DE
330
292D6
100
AcDbEntity
  8
Pel_Muntin_AS
100
AcDbPolyline
 90
        4
 70
     1
 43
0.0
 10
10.62433
 20
14.519999
 10
4.625
 20
14.519999
 10
4.625
 20
4.624999999999999
 10
10.62433
 20
4.624999999999999
  0
LWPOLYLINE
  5
292DF
330
292D6
100
AcDbEntity
  8
Pel_Muntin_AS
100
AcDbPolyline
 90
        4
 70
     1
 43
0.0
 10
17.49966
 20
14.519999
 10
11.50033
 20
14.519999
 10
11.50033
 20
4.624999999999999
 10
17.49966
 20
4.624999999999999
  0
LWPOLYLINE
  5
292E0
330
292D6
100
AcDbEntity
  8
Pel_Muntin_AS
100
AcDbPolyline
 90
        4
 70
     1
 43
0.0
 10
24.375
 20
14.519999
 10
18.37567
 20
14.519999
 10
18.37567
 20
4.624999999999999
 10
24.375
 20
4.624999999999999
  0
LWPOLYLINE
  5
292E1
330
292D6
100
AcDbEntity
  8
Pel_Muntin_AS
100
AcDbPolyline
 90
        4
 70
     1
 43
0.0
 10
39.62432999999999
 20
14.519999
 10
33.625
 20
14.519999
 10
33.625
 20
4.624999999999999
 10
39.62432999999999
 20
4.624999999999999
  0
LWPOLYLINE
  5
292E2
330
292D6
100
AcDbEntity
  8
Pel_Muntin_AS
100
AcDbPolyline
 90
        4
 70
     1
 43
0.0
 10
46.49966
 20
14.519999
 10
40.50032999999999
 20
14.519999
 10
40.50032999999999
 20
4.624999999999999
 10
46.49966
 20
4.624999999999999
  0
LWPOLYLINE
  5
292E3
330
292D6
100
AcDbEntity
  8
Pel_Muntin_AS
100
AcDbPolyline
 90
        4
 70
     1
 43
0.0
 10
53.375
 20
14.519999
 10
47.37567000000001
 20
14.519999
 10
47.37567000000001
 20
4.624999999999999
 10
53.375
 20
4.624999999999999
  0
LWPOLYLINE
  5
292E4
330
292D6
100
AcDbEntity
  8
Pel_Muntin_AS
100
AcDbPolyline
 90
        4
 70
     1
 43
0.0
 10
10.62432999999998
 20
25.290998
 10
4.624999999999985
 20
25.290998
 10
4.624999999999985
 20
15.395999
 10
10.62432999999998
 20
15.395999
  0
LWPOLYLINE
  5
292E5
330
292D6
100
AcDbEntity
  8
Pel_Muntin_AS
100
AcDbPolyline
 90
        4
 70
     1
 43
0.0
 10
17.49965999999999
 20
25.290998
 10
11.50032999999999
 20
25.290998
 10
11.50032999999999
 20
15.395999
 10
17.49965999999999
 20
15.395999
  0
LWPOLYLINE
  5
292E6
330
292D6
100
AcDbEntity
  8
Pel_Muntin_AS
100
AcDbPolyline
 90
        4
 70
     1
 43
0.0
 10
24.37499999999999
 20
25.290998
 10
18.37566999999998
 20
25.290998
 10
18.37566999999998
 20
15.395999
 10
24.37499999999999
 20
15.395999
  0
LWPOLYLINE
  5
292E7
330
292D6
100
AcDbEntity
  8
Pel_Muntin_AS
100
AcDbPolyline
 90
        4
 70
     1
 43
0.0
 10
39.62432999999997
 20
25.290998
 10
33.62499999999999
 20
25.290998
 10
33.62499999999999
 20
15.395999
 10
39.62432999999997
 20
15.395999
  0
LWPOLYLINE
  5
292E8
330
292D6
100
AcDbEntity
  8
Pel_Muntin_AS
100
AcDbPolyline
 90
        4
 70
     1
 43
0.0
 10
46.49965999999999
 20
25.290998
 10
40.50032999999998
 20
25.290998
 10
40.50032999999998
 20
15.395999
 10
46.49965999999999
 20
15.395999
  0
LWPOLYLINE
  5
292E9
330
292D6
100
AcDbEntity
  8
Pel_Muntin_AS
100
AcDbPolyline
 90
        4
 70
     1
 43
0.0
 10
53.37499999999998
 20
25.290998
 10
47.37567
 20
25.290998
 10
47.37567
 20
15.395999
 10
53.37499999999998
 20
15.395999
  0
LWPOLYLINE
  5
292EA
330
292D6
100
AcDbEntity
  8
Pel_Muntin_AS
100
AcDbPolyline
 90
        4
 70
     1
 43
0.0
 10
10.62432999999998
 20
36.06199800000001
 10
4.624999999999985
 20
36.06199800000001
 10
4.624999999999985
 20
26.166999
 10
10.62432999999998
 20
26.166999
  0
LWPOLYLINE
  5
292EB
330
292D6
100
AcDbEntity
  8
Pel_Muntin_AS
100
AcDbPolyline
 90
        4
 70
     1
 43
0.0
 10
17.49965999999999
 20
36.06199800000001
 10
11.50032999999999
 20
36.06199800000001
 10
11.50032999999999
 20
26.166999
 10
17.49965999999999
 20
26.166999
  0
LWPOLYLINE
  5
292EC
330
292D6
100
AcDbEntity
  8
Pel_Muntin_AS
100
AcDbPolyline
 90
        4
 70
     1
 43
0.0
 10
24.37499999999999
 20
36.06199800000001
 10
18.37566999999998
 20
36.06199800000001
 10
18.37566999999998
 20
26.166999
 10
24.37499999999999
 20
26.166999
  0
LWPOLYLINE
  5
292ED
330
292D6
100
AcDbEntity
  8
Pel_Muntin_AS
100
AcDbPolyline
 90
        4
 70
     1
 43
0.0
 10
39.62432999999997
 20
36.06199800000001
 10
33.62499999999999
 20
36.06199800000001
 10
33.62499999999999
 20
26.166999
 10
39.62432999999997
 20
26.166999
  0
LWPOLYLINE
  5
292EE
330
292D6
100
AcDbEntity
  8
Pel_Muntin_AS
100
AcDbPolyline
 90
        4
 70
     1
 43
0.0
 10
46.49965999999999
 20
36.06199800000001
 10
40.50032999999998
 20
36.06199800000001
 10
40.50032999999998
 20
26.166999
 10
46.49965999999999
 20
26.166999
  0
LWPOLYLINE
  5
292EF
330
292D6
100
AcDbEntity
  8
Pel_Muntin_AS
100
AcDbPolyline
 90
        4
 70
     1
 43
0.0
 10
53.37499999999998
 20
36.06199800000001
 10
47.37567
 20
36.06199800000001
 10
47.37567
 20
26.166999
 10
53.37499999999998
 20
26.166999
  0
LWPOLYLINE
  5
292F0
330
292D6
100
AcDbEntity
  8
Pel_Muntin_AS
100
AcDbPolyline
 90
        4
 70
     1
 43
0.0
 10
10.62432999999998
 20
46.832998
 10
4.624999999999985
 20
46.832998
 10
4.624999999999985
 20
36.93799900000001
 10
10.62432999999998
 20
36.93799900000001
  0
LWPOLYLINE
  5
292F1
330
292D6
100
AcDbEntity
  8
Pel_Muntin_AS
100
AcDbPolyline
 90
        4
 70
     1
 43
0.0
 10
17.49965999999999
 20
46.832998
 10
11.50032999999999
 20
46.832998
 10
11.50032999999999
 20
36.93799900000001
 10
17.49965999999999
 20
36.93799900000001
  0
LWPOLYLINE
  5
292F2
330
292D6
100
AcDbEntity
  8
Pel_Muntin_AS
100
AcDbPolyline
 90
        4
 70
     1
 43
0.0
 10
24.37499999999999
 20
46.832998
 10
18.37566999999998
 20
46.832998
 10
18.37566999999998
 20
36.93799900000001
 10
24.37499999999999
 20
36.93799900000001
  0
LWPOLYLINE
  5
292F3
330
292D6
100
AcDbEntity
  8
Pel_Muntin_AS
100
AcDbPolyline
 90
        4
 70
     1
 43
0.0
 10
39.62432999999997
 20
46.832998
 10
33.62499999999999
 20
46.832998
 10
33.62499999999999
 20
36.93799900000001
 10
39.62432999999997
 20
36.93799900000001
  0
LWPOLYLINE
  5
292F4
330
292D6
100
AcDbEntity
  8
Pel_Muntin_AS
100
AcDbPolyline
 90
        4
 70
     1
 43
0.0
 10
46.49965999999999
 20
46.832998
 10
40.50032999999998
 20
46.832998
 10
40.50032999999998
 20
36.93799900000001
 10
46.49965999999999
 20
36.93799900000001
  0
LWPOLYLINE
  5
292F5
330
292D6
100
AcDbEntity
  8
Pel_Muntin_AS
100
AcDbPolyline
 90
        4
 70
     1
 43
0.0
 10
53.37499999999998
 20
46.832998
 10
47.37567
 20
46.832998
 10
47.37567
 20
36.93799900000001
 10
53.37499999999998
 20
36.93799900000001
  0
LWPOLYLINE
  5
292F6
330
292D6
100
AcDbEntity
  8
Pel_Muntin_AS
100
AcDbPolyline
 90
        4
 70
     1
 43
0.0
 10
10.62432999999998
 20
57.603998
 10
4.624999999999985
 20
57.603998
 10
4.624999999999985
 20
47.708999
 10
10.62432999999998
 20
47.708999
  0
LWPOLYLINE
  5
292F7
330
292D6
100
AcDbEntity
  8
Pel_Muntin_AS
100
AcDbPolyline
 90
        4
 70
     1
 43
0.0
 10
17.49965999999999
 20
57.603998
 10
11.50032999999999
 20
57.603998
 10
11.50032999999999
 20
47.708999
 10
17.49965999999999
 20
47.708999
  0
LWPOLYLINE
  5
292F8
330
292D6
100
AcDbEntity
  8
Pel_Muntin_AS
100
AcDbPolyline
 90
        4
 70
     1
 43
0.0
 10
24.37499999999999
 20
57.603998
 10
18.37566999999998
 20
57.603998
 10
18.37566999999998
 20
47.708999
 10
24.37499999999999
 20
47.708999
  0
LWPOLYLINE
  5
292F9
330
292D6
100
AcDbEntity
  8
Pel_Muntin_AS
100
AcDbPolyline
 90
        4
 70
     1
 43
0.0
 10
39.62432999999997
 20
57.603998
 10
33.62499999999999
 20
57.603998
 10
33.62499999999999
 20
47.708999
 10
39.62432999999997
 20
47.708999
  0
LWPOLYLINE
  5
292FA
330
292D6
100
AcDbEntity
  8
Pel_Muntin_AS
100
AcDbPolyline
 90
        4
 70
     1
 43
0.0
 10
46.49965999999999
 20
57.603998
 10
40.50032999999998
 20
57.603998
 10
40.50032999999998
 20
47.708999
 10
46.49965999999999
 20
47.708999
  0
LWPOLYLINE
  5
292FB
330
292D6
100
AcDbEntity
  8
Pel_Muntin_AS
100
AcDbPolyline
 90
        4
 70
     1
 43
0.0
 10
53.37499999999998
 20
57.603998
 10
47.37567
 20
57.603998
 10
47.37567
 20
47.708999
 10
53.37499999999998
 20
47.708999
  0
LWPOLYLINE
  5
292FC
330
292D6
100
AcDbEntity
  8
Pel_Muntin_AS
100
AcDbPolyline
 90
        4
 70
     1
 43
0.0
 10
10.62432999999998
 20
68.37499799999999
 10
4.624999999999985
 20
68.37499799999999
 10
4.624999999999985
 20
58.47999899999999
 10
10.62432999999998
 20
58.47999899999999
  0
LWPOLYLINE
  5
292FD
330
292D6
100
AcDbEntity
  8
Pel_Muntin_AS
100
AcDbPolyline
 90
        4
 70
     1
 43
0.0
 10
17.49965999999999
 20
68.37499799999999
 10
11.50032999999999
 20
68.37499799999999
 10
11.50032999999999
 20
58.47999899999999
 10
17.49965999999999
 20
58.47999899999999
  0
LWPOLYLINE
  5
292FE
330
292D6
100
AcDbEntity
  8
Pel_Muntin_AS
100
AcDbPolyline
 90
        4
 70
     1
 43
0.0
 10
24.37499999999999
 20
68.37499799999999
 10
18.37566999999998
 20
68.37499799999999
 10
18.37566999999998
 20
58.47999899999999
 10
24.37499999999999
 20
58.47999899999999
  0
LWPOLYLINE
  5
292FF
330
292D6
100
AcDbEntity
  8
Pel_Muntin_AS
100
AcDbPolyline
 90
        4
 70
     1
 43
0.0
 10
39.62432999999997
 20
68.37499799999999
 10
33.62499999999999
 20
68.37499799999999
 10
33.62499999999999
 20
58.47999899999999
 10
39.62432999999997
 20
58.47999899999999
  0
LWPOLYLINE
  5
29300
330
292D6
100
AcDbEntity
  8
Pel_Muntin_AS
100
AcDbPolyline
 90
        4
 70
     1
 43
0.0
 10
46.49965999999999
 20
68.37499799999999
 10
40.50032999999998
 20
68.37499799999999
 10
40.50032999999998
 20
58.47999899999999
 10
46.49965999999999
 20
58.47999899999999
  0
LWPOLYLINE
  5
29301
330
292D6
100
AcDbEntity
  8
Pel_Muntin_AS
100
AcDbPolyline
 90
        4
 70
     1
 43
0.0
 10
53.37499999999998
 20
68.37499799999999
 10
47.37567
 20
68.37499799999999
 10
47.37567
 20
58.47999899999999
 10
53.37499999999998
 20
58.47999899999999
  0
ENDBLK
  5
29305
330
292D6
100
AcDbEntity
  8
0
100
AcDbBlockEnd
  0
BLOCK
  5
2932F
330
29307
100
AcDbEntity
  8
0
100
AcDbBlockBegin
  2
ASPCICM2-2971T
 70
     0
 10
0.0
 20
0.0
 30
0.0
  3
ASPCICM2-2971T
  1

  0
LWPOLYLINE
  5
29308
330
29307
100
AcDbEntity
  8
Pel_Frame_Outside
100
AcDbPolyline
 90
        8
 70
     1
 43
0.0
 10
29.0
 20
0.0
 10
29.0
 20
71.00000099999999
 10
0.0000000000000027
 20
71.00000099999999
 10
0.0000000000000027
 20
0.0
 10
29.0
 20
0.0
 10
29.0
 20
71.00000099999999
 10
58.0
 20
71.00000099999999
 10
58.0
 20
0.0
  0
LWPOLYLINE
  5
29309
330
29307
100
AcDbEntity
  8
Pel_Sash_Outside
100
AcDbPolyline
 90
        4
 70
     1
 43
0.0
 10
30.625
 20
1.624999999999999
 10
30.625
 20
69.375001
 10
56.375
 20
69.375001
 10
56.375
 20
1.624999999999999
  0
LWPOLYLINE
  5
2930A
330
29307
100
AcDbEntity
  8
Pel_Sash_Inside
100
AcDbPolyline
 90
        4
 70
     1
 43
0.0
 10
33.625
 20
4.624999999999999
 10
33.625
 20
66.375001
 10
53.375
 20
66.375001
 10
53.375
 20
4.624999999999999
  0
LWPOLYLINE
  5
2930B
330
29307
100
AcDbEntity
  8
Pel_Hinging
 48
6.0
100
AcDbPolyline
 90
        3
 70
     0
 43
0.0
 10
30.625
 20
1.624999999999999
 10
56.375
 20
35.5000005
 10
30.625
 20
69.375001
  0
LWPOLYLINE
  5
2930C
330
29307
100
AcDbEntity
  8
Pel_Sash_Outside
100
AcDbPolyline
 90
        4
 70
     1
 43
0.0
 10
1.625000000000002
 20
69.375001
 10
27.37500000000001
 20
69.375001
 10
27.37500000000001
 20
1.624999999999999
 10
1.625000000000002
 20
1.624999999999999
  0
LWPOLYLINE
  5
2930D
330
29307
100
AcDbEntity
  8
Pel_Sash_Inside
100
AcDbPolyline
 90
        4
 70
     1
 43
0.0
 10
24.375
 20
66.375001
 10
24.375
 20
4.624999999999999
 10
4.625000000000002
 20
4.624999999999999
 10
4.625000000000002
 20
66.375001
  0
LWPOLYLINE
  5
2930E
330
29307
100
AcDbEntity
  8
Pel_Hinging
 48
6.0
100
AcDbPolyline
 90
        3
 70
     0
 43
0.0
 10
27.37500000000001
 20
1.624999999999999
 10
1.625000000000002
 20
35.5000005
 10
27.37500000000001
 20
69.375001
  0
LWPOLYLINE
  5
2930F
330
29307
100
AcDbEntity
  8
Pel_Muntin_AS
100
AcDbPolyline
 90
        4
 70
     1
 43
0.0
 10
10.62433
 20
66.375001
 10
4.625000000000002
 20
66.375001
 10
4.62498238552683
 20
54.725801
 10
10.62431238552683
 20
54.725801
  0
LWPOLYLINE
  5
29310
330
29307
100
AcDbEntity
  8
Pel_Muntin_AS
100
AcDbPolyline
 90
        4
 70
     1
 43
0.0
 10
10.62433
 20
16.274201
 10
4.625000000000002
 20
16.274201
 10
4.625000000000002
 20
4.624999999999999
 10
10.62433
 20
4.624999999999999
  0
LWPOLYLINE
  5
29311
330
29307
100
AcDbEntity
  8
Pel_Muntin_AS
100
AcDbPolyline
 90
        4
 70
     1
 43
0.0
 10
17.49966000000001
 20
16.274201
 10
11.50033000000001
 20
16.274201
 10
11.50033000000001
 20
4.624999999999999
 10
17.49966000000001
 20
4.624999999999999
  0
LWPOLYLINE
  5
29312
330
29307
100
AcDbEntity
  8
Pel_Muntin_AS
100
AcDbPolyline
 90
        4
 70
     1
 43
0.0
 10
24.375
 20
16.274201
 10
18.37567
 20
16.274201
 10
18.37567
 20
4.624999999999999
 10
24.375
 20
4.624999999999999
  0
LWPOLYLINE
  5
29313
330
29307
100
AcDbEntity
  8
Pel_Muntin_AS
100
AcDbPolyline
 90
        4
 70
     1
 43
0.0
 10
17.49966000000001
 20
66.375001
 10
11.50033000000001
 20
66.375001
 10
11.50031238552683
 20
54.725801
 10
17.49964238552683
 20
54.725801
  0
LWPOLYLINE
  5
29314
330
29307
100
AcDbEntity
  8
Pel_Muntin_AS
100
AcDbPolyline
 90
        4
 70
     1
 43
0.0
 10
24.375
 20
66.375001
 10
18.37567
 20
66.375001
 10
18.37565238552683
 20
54.725801
 10
24.37498238552683
 20
54.725801
  0
LWPOLYLINE
  5
29315
330
29307
100
AcDbEntity
  8
Pel_Muntin_AS
100
AcDbPolyline
 90
        4
 70
     1
 43
0.0
 10
39.62432999999999
 20
66.375001
 10
33.625
 20
66.375001
 10
33.62498238552683
 20
54.725801
 10
39.62431238552682
 20
54.725801
  0
LWPOLYLINE
  5
29316
330
29307
100
AcDbEntity
  8
Pel_Muntin_AS
100
AcDbPolyline
 90
        4
 70
     1
 43
0.0
 10
39.62432999999999
 20
16.274201
 10
33.625
 20
16.274201
 10
33.625
 20
4.624999999999999
 10
39.62432999999999
 20
4.624999999999999
  0
LWPOLYLINE
  5
29317
330
29307
100
AcDbEntity
  8
Pel_Muntin_AS
100
AcDbPolyline
 90
        4
 70
     1
 43
0.0
 10
46.49966
 20
16.274201
 10
40.50032999999999
 20
16.274201
 10
40.50032999999999
 20
4.624999999999999
 10
46.49966
 20
4.624999999999999
  0
LWPOLYLINE
  5
29318
330
29307
100
AcDbEntity
  8
Pel_Muntin_AS
100
AcDbPolyline
 90
        4
 70
     1
 43
0.0
 10
46.49966
 20
66.375001
 10
40.50032999999999
 20
66.375001
 10
40.50031238552682
 20
54.725801
 10
46.49964238552683
 20
54.725801
  0
LWPOLYLINE
  5
29319
330
29307
100
AcDbEntity
  8
Pel_Muntin_AS
100
AcDbPolyline
 90
        4
 70
     1
 43
0.0
 10
53.375
 20
66.375001
 10
47.37567000000001
 20
66.375001
 10
47.37565238552684
 20
54.725801
 10
53.37498238552683
 20
54.725801
  0
LWPOLYLINE
  5
2931A
330
29307
100
AcDbEntity
  8
Pel_Muntin_AS
100
AcDbPolyline
 90
        4
 70
     1
 43
0.0
 10
53.375
 20
16.274201
 10
47.37567000000001
 20
16.274201
 10
47.37567000000001
 20
4.624999999999999
 10
53.375
 20
4.624999999999999
  0
LWPOLYLINE
  5
2931B
330
29307
100
AcDbEntity
  8
Pel_Muntin_AS
100
AcDbPolyline
 90
        4
 70
     1
 43
0.0
 10
10.62432863980857
 20
41.324601
 10
4.624998639808569
 20
41.324601
 10
4.624999852451888
 20
29.675401
 10
10.62432985245189
 20
29.675401
  0
LWPOLYLINE
  5
2931C
330
29307
100
AcDbEntity
  8
Pel_Muntin_AS
100
AcDbPolyline
 90
        4
 70
     1
 43
0.0
 10
17.49965863980857
 20
41.324601
 10
11.50032863980857
 20
41.324601
 10
11.50032985245189
 20
29.675401
 10
17.49965985245189
 20
29.675401
  0
LWPOLYLINE
  5
2931D
330
29307
100
AcDbEntity
  8
Pel_Muntin_AS
100
AcDbPolyline
 90
        4
 70
     1
 43
0.0
 10
24.37499863980857
 20
41.324601
 10
18.37566863980857
 20
41.324601
 10
18.37566985245189
 20
29.675401
 10
24.37499985245189
 20
29.675401
  0
LWPOLYLINE
  5
2931E
330
29307
100
AcDbEntity
  8
Pel_Muntin_AS
100
AcDbPolyline
 90
        4
 70
     1
 43
0.0
 10
39.62432863980855
 20
41.324601
 10
33.62499863980857
 20
41.324601
 10
33.62499985245189
 20
29.675401
 10
39.62432985245187
 20
29.675401
  0
LWPOLYLINE
  5
2931F
330
29307
100
AcDbEntity
  8
Pel_Muntin_AS
100
AcDbPolyline
 90
        4
 70
     1
 43
0.0
 10
46.49965863980857
 20
41.324601
 10
40.50032863980855
 20
41.324601
 10
40.50032985245187
 20
29.675401
 10
46.49965985245189
 20
29.675401
  0
LWPOLYLINE
  5
29320
330
29307
100
AcDbEntity
  8
Pel_Muntin_AS
100
AcDbPolyline
 90
        4
 70
     1
 43
0.0
 10
53.37499863980856
 20
41.324601
 10
47.37566863980858
 20
41.324601
 10
47.3756698524519
 20
29.675401
 10
53.37499985245188
 20
29.675401
  0
LWPOLYLINE
  5
29321
330
29307
100
AcDbEntity
  8
Pel_Muntin_AS
100
AcDbPolyline
 90
        4
 70
     1
 43
0.0
 10
10.62432238552682
 20
53.84980099999999
 10
4.624992385526819
 20
53.84980099999999
 10
4.624998639808569
 20
42.200601
 10
10.62432863980857
 20
42.200601
  0
LWPOLYLINE
  5
29322
330
29307
100
AcDbEntity
  8
Pel_Muntin_AS
100
AcDbPolyline
 90
        4
 70
     1
 43
0.0
 10
17.49965238552682
 20
53.84980099999999
 10
11.50032238552682
 20
53.84980099999999
 10
11.50032863980857
 20
42.200601
 10
17.49965863980857
 20
42.200601
  0
LWPOLYLINE
  5
29323
330
29307
100
AcDbEntity
  8
Pel_Muntin_AS
100
AcDbPolyline
 90
        4
 70
     1
 43
0.0
 10
24.37499238552682
 20
53.84980099999999
 10
18.37566238552682
 20
53.84980099999999
 10
18.37566863980857
 20
42.200601
 10
24.37499863980857
 20
42.200601
  0
LWPOLYLINE
  5
29324
330
29307
100
AcDbEntity
  8
Pel_Muntin_AS
100
AcDbPolyline
 90
        4
 70
     1
 43
0.0
 10
39.6243223855268
 20
53.84980099999999
 10
33.62499238552682
 20
53.84980099999999
 10
33.62499863980857
 20
42.200601
 10
39.62432863980855
 20
42.200601
  0
LWPOLYLINE
  5
29325
330
29307
100
AcDbEntity
  8
Pel_Muntin_AS
100
AcDbPolyline
 90
        4
 70
     1
 43
0.0
 10
46.49965238552682
 20
53.84980099999999
 10
40.5003223855268
 20
53.84980099999999
 10
40.50032863980855
 20
42.200601
 10
46.49965863980857
 20
42.200601
  0
LWPOLYLINE
  5
29326
330
29307
100
AcDbEntity
  8
Pel_Muntin_AS
100
AcDbPolyline
 90
        4
 70
     1
 43
0.0
 10
53.37499238552681
 20
53.84980099999999
 10
47.37566238552683
 20
53.84980099999999
 10
47.37566863980858
 20
42.200601
 10
53.37499863980856
 20
42.200601
  0
LWPOLYLINE
  5
29327
330
29307
100
AcDbEntity
  8
Pel_Muntin_AS
100
AcDbPolyline
 90
        4
 70
     1
 43
0.0
 10
10.62432985245189
 20
28.79940100000001
 10
4.624999852451888
 20
28.79940100000001
 10
4.625000000000002
 20
17.150201
 10
10.62433
 20
17.150201
  0
LWPOLYLINE
  5
29328
330
29307
100
AcDbEntity
  8
Pel_Muntin_AS
100
AcDbPolyline
 90
        4
 70
     1
 43
0.0
 10
17.49965985245189
 20
28.79940100000001
 10
11.50032985245189
 20
28.79940100000001
 10
11.50033000000001
 20
17.150201
 10
17.49966000000001
 20
17.150201
  0
LWPOLYLINE
  5
29329
330
29307
100
AcDbEntity
  8
Pel_Muntin_AS
100
AcDbPolyline
 90
        4
 70
     1
 43
0.0
 10
24.37499985245189
 20
28.79940100000001
 10
18.37566985245189
 20
28.79940100000001
 10
18.37567
 20
17.150201
 10
24.375
 20
17.150201
  0
LWPOLYLINE
  5
2932A
330
29307
100
AcDbEntity
  8
Pel_Muntin_AS
100
AcDbPolyline
 90
        4
 70
     1
 43
0.0
 10
39.62432985245187
 20
28.79940100000001
 10
33.62499985245189
 20
28.79940100000001
 10
33.625
 20
17.150201
 10
39.62432999999999
 20
17.150201
  0
LWPOLYLINE
  5
2932B
330
29307
100
AcDbEntity
  8
Pel_Muntin_AS
100
AcDbPolyline
 90
        4
 70
     1
 43
0.0
 10
46.49965985245189
 20
28.79940100000001
 10
40.50032985245187
 20
28.79940100000001
 10
40.50032999999999
 20
17.150201
 10
46.49966
 20
17.150201
  0
LWPOLYLINE
  5
2932C
330
29307
100
AcDbEntity
  8
Pel_Muntin_AS
100
AcDbPolyline
 90
        4
 70
     1
 43
0.0
 10
53.37499985245188
 20
28.79940100000001
 10
47.3756698524519
 20
28.79940100000001
 10
47.37567000000001
 20
17.150201
 10
53.375
 20
17.150201
  0
ENDBLK
  5
29330
330
29307
100
AcDbEntity
  8
0
100
AcDbBlockEnd
  0
BLOCK
  5
2935A
330
29332
100
AcDbEntity
  8
0
100
AcDbBlockBegin
  2
ASPCICM2-2965T
 70
     0
 10
0.0
 20
0.0
 30
0.0
  3
ASPCICM2-2965T
  1

  0
LWPOLYLINE
  5
29333
330
29332
100
AcDbEntity
  8
Pel_Frame_Outside
100
AcDbPolyline
 90
        8
 70
     1
 43
0.0
 10
29.0
 20
0.0
 10
29.0
 20
65.0
 10
0.0000000000000027
 20
65.0
 10
0.0000000000000027
 20
0.0
 10
29.0
 20
0.0
 10
29.0
 20
65.0
 10
58.0
 20
65.0
 10
58.0
 20
0.0
  0
LWPOLYLINE
  5
29334
330
29332
100
AcDbEntity
  8
Pel_Sash_Outside
100
AcDbPolyline
 90
        4
 70
     1
 43
0.0
 10
30.625
 20
1.624999999999999
 10
30.625
 20
63.375
 10
56.375
 20
63.375
 10
56.375
 20
1.624999999999999
  0
LWPOLYLINE
  5
29335
330
29332
100
AcDbEntity
  8
Pel_Sash_Inside
100
AcDbPolyline
 90
        4
 70
     1
 43
0.0
 10
33.625
 20
4.624999999999999
 10
33.625
 20
60.375
 10
53.375
 20
60.375
 10
53.375
 20
4.624999999999999
  0
LWPOLYLINE
  5
29336
330
29332
100
AcDbEntity
  8
Pel_Hinging
 48
6.0
100
AcDbPolyline
 90
        3
 70
     0
 43
0.0
 10
30.625
 20
1.624999999999999
 10
56.375
 20
32.5
 10
30.625
 20
63.375
  0
LWPOLYLINE
  5
29337
330
29332
100
AcDbEntity
  8
Pel_Sash_Outside
100
AcDbPolyline
 90
        4
 70
     1
 43
0.0
 10
1.625000000000002
 20
63.375
 10
27.37500000000001
 20
63.375
 10
27.37500000000001
 20
1.624999999999999
 10
1.625000000000002
 20
1.624999999999999
  0
LWPOLYLINE
  5
29338
330
29332
100
AcDbEntity
  8
Pel_Sash_Inside
100
AcDbPolyline
 90
        4
 70
     1
 43
0.0
 10
24.375
 20
60.375
 10
24.375
 20
4.624999999999999
 10
4.625000000000002
 20
4.624999999999999
 10
4.625000000000002
 20
60.375
  0
LWPOLYLINE
  5
29339
330
29332
100
AcDbEntity
  8
Pel_Hinging
 48
6.0
100
AcDbPolyline
 90
        3
 70
     0
 43
0.0
 10
27.37500000000001
 20
1.624999999999999
 10
1.625000000000002
 20
32.5
 10
27.37500000000001
 20
63.375
  0
LWPOLYLINE
  5
2933A
330
29332
100
AcDbEntity
  8
Pel_Muntin_AS
100
AcDbPolyline
 90
        4
 70
     1
 43
0.0
 10
10.62433
 20
60.375
 10
4.625000000000002
 20
60.375
 10
4.624990000000013
 20
49.9258
 10
10.62432000000001
 20
49.9258
  0
LWPOLYLINE
  5
2933B
330
29332
100
AcDbEntity
  8
Pel_Muntin_AS
100
AcDbPolyline
 90
        4
 70
     1
 43
0.0
 10
10.62433
 20
15.0742
 10
4.625000000000002
 20
15.0742
 10
4.625000000000002
 20
4.624999999999999
 10
10.62433
 20
4.624999999999999
  0
LWPOLYLINE
  5
2933C
330
29332
100
AcDbEntity
  8
Pel_Muntin_AS
100
AcDbPolyline
 90
        4
 70
     1
 43
0.0
 10
17.49966000000001
 20
15.0742
 10
11.50033000000001
 20
15.0742
 10
11.50033000000001
 20
4.624999999999999
 10
17.49966000000001
 20
4.624999999999999
  0
LWPOLYLINE
  5
2933D
330
29332
100
AcDbEntity
  8
Pel_Muntin_AS
100
AcDbPolyline
 90
        4
 70
     1
 43
0.0
 10
24.375
 20
15.0742
 10
18.37567
 20
15.0742
 10
18.37567
 20
4.624999999999999
 10
24.375
 20
4.624999999999999
  0
LWPOLYLINE
  5
2933E
330
29332
100
AcDbEntity
  8
Pel_Muntin_AS
100
AcDbPolyline
 90
        4
 70
     1
 43
0.0
 10
17.49966000000001
 20
60.375
 10
11.50033000000001
 20
60.375
 10
11.50032000000002
 20
49.9258
 10
17.49965000000002
 20
49.9258
  0
LWPOLYLINE
  5
2933F
330
29332
100
AcDbEntity
  8
Pel_Muntin_AS
100
AcDbPolyline
 90
        4
 70
     1
 43
0.0
 10
24.375
 20
60.375
 10
18.37567
 20
60.375
 10
18.37566000000001
 20
49.9258
 10
24.37499000000002
 20
49.9258
  0
LWPOLYLINE
  5
29340
330
29332
100
AcDbEntity
  8
Pel_Muntin_AS
100
AcDbPolyline
 90
        4
 70
     1
 43
0.0
 10
39.62432999999999
 20
60.375
 10
33.625
 20
60.375
 10
33.62499000000001
 20
49.9258
 10
39.62432
 20
49.9258
  0
LWPOLYLINE
  5
29341
330
29332
100
AcDbEntity
  8
Pel_Muntin_AS
100
AcDbPolyline
 90
        4
 70
     1
 43
0.0
 10
39.62432999999999
 20
15.0742
 10
33.625
 20
15.0742
 10
33.625
 20
4.624999999999999
 10
39.62432999999999
 20
4.624999999999999
  0
LWPOLYLINE
  5
29342
330
29332
100
AcDbEntity
  8
Pel_Muntin_AS
100
AcDbPolyline
 90
        4
 70
     1
 43
0.0
 10
46.49966
 20
15.0742
 10
40.50032999999999
 20
15.0742
 10
40.50032999999999
 20
4.624999999999999
 10
46.49966
 20
4.624999999999999
  0
LWPOLYLINE
  5
29343
330
29332
100
AcDbEntity
  8
Pel_Muntin_AS
100
AcDbPolyline
 90
        4
 70
     1
 43
0.0
 10
46.49966
 20
60.375
 10
40.50032999999999
 20
60.375
 10
40.50032
 20
49.9258
 10
46.49965000000001
 20
49.9258
  0
LWPOLYLINE
  5
29344
330
29332
100
AcDbEntity
  8
Pel_Muntin_AS
100
AcDbPolyline
 90
        4
 70
     1
 43
0.0
 10
53.375
 20
60.375
 10
47.37567000000001
 20
60.375
 10
47.37566000000002
 20
49.9258
 10
53.37499000000001
 20
49.9258
  0
LWPOLYLINE
  5
29345
330
29332
100
AcDbEntity
  8
Pel_Muntin_AS
100
AcDbPolyline
 90
        4
 70
     1
 43
0.0
 10
53.375
 20
15.0742
 10
47.37567000000001
 20
15.0742
 10
47.37567000000001
 20
4.624999999999999
 10
53.375
 20
4.624999999999999
  0
LWPOLYLINE
  5
29346
330
29332
100
AcDbEntity
  8
Pel_Muntin_AS
100
AcDbPolyline
 90
        4
 70
     1
 43
0.0
 10
10.62433
 20
37.72460000000001
 10
4.625000000000002
 20
37.72460000000001
 10
4.625000000000002
 20
27.2754
 10
10.62433
 20
27.2754
  0
LWPOLYLINE
  5
29347
330
29332
100
AcDbEntity
  8
Pel_Muntin_AS
100
AcDbPolyline
 90
        4
 70
     1
 43
0.0
 10
17.49966000000001
 20
37.72460000000001
 10
11.50033000000001
 20
37.72460000000001
 10
11.50033000000001
 20
27.2754
 10
17.49966000000001
 20
27.2754
  0
LWPOLYLINE
  5
29348
330
29332
100
AcDbEntity
  8
Pel_Muntin_AS
100
AcDbPolyline
 90
        4
 70
     1
 43
0.0
 10
24.375
 20
37.72460000000001
 10
18.37567
 20
37.72460000000001
 10
18.37567
 20
27.2754
 10
24.375
 20
27.2754
  0
LWPOLYLINE
  5
29349
330
29332
100
AcDbEntity
  8
Pel_Muntin_AS
100
AcDbPolyline
 90
        4
 70
     1
 43
0.0
 10
39.62432999999999
 20
37.72460000000001
 10
33.625
 20
37.72460000000001
 10
33.625
 20
27.2754
 10
39.62432999999999
 20
27.2754
  0
LWPOLYLINE
  5
2934A
330
29332
100
AcDbEntity
  8
Pel_Muntin_AS
100
AcDbPolyline
 90
        4
 70
     1
 43
0.0
 10
46.49966
 20
37.72460000000001
 10
40.50032999999999
 20
37.72460000000001
 10
40.50032999999999
 20
27.2754
 10
46.49966
 20
27.2754
  0
LWPOLYLINE
  5
2934B
330
29332
100
AcDbEntity
  8
Pel_Muntin_AS
100
AcDbPolyline
 90
        4
 70
     1
 43
0.0
 10
53.375
 20
37.72460000000001
 10
47.37567000000001
 20
37.72460000000001
 10
47.37567000000001
 20
27.2754
 10
53.375
 20
27.2754
  0
LWPOLYLINE
  5
2934C
330
29332
100
AcDbEntity
  8
Pel_Muntin_AS
100
AcDbPolyline
 90
        4
 70
     1
 43
0.0
 10
10.62433
 20
49.0498
 10
4.625000000000002
 20
49.0498
 10
4.625000000000002
 20
38.6006
 10
10.62433
 20
38.6006
  0
LWPOLYLINE
  5
2934D
330
29332
100
AcDbEntity
  8
Pel_Muntin_AS
100
AcDbPolyline
 90
        4
 70
     1
 43
0.0
 10
17.49966000000001
 20
49.0498
 10
11.50033000000001
 20
49.0498
 10
11.50033000000001
 20
38.6006
 10
17.49966000000001
 20
38.6006
  0
LWPOLYLINE
  5
2934E
330
29332
100
AcDbEntity
  8
Pel_Muntin_AS
100
AcDbPolyline
 90
        4
 70
     1
 43
0.0
 10
24.375
 20
49.0498
 10
18.37567
 20
49.0498
 10
18.37567
 20
38.6006
 10
24.375
 20
38.6006
  0
LWPOLYLINE
  5
2934F
330
29332
100
AcDbEntity
  8
Pel_Muntin_AS
100
AcDbPolyline
 90
        4
 70
     1
 43
0.0
 10
39.62432999999999
 20
49.0498
 10
33.625
 20
49.0498
 10
33.625
 20
38.6006
 10
39.62432999999999
 20
38.6006
  0
LWPOLYLINE
  5
29350
330
29332
100
AcDbEntity
  8
Pel_Muntin_AS
100
AcDbPolyline
 90
        4
 70
     1
 43
0.0
 10
46.49966
 20
49.0498
 10
40.50032999999999
 20
49.0498
 10
40.50032999999999
 20
38.6006
 10
46.49966
 20
38.6006
  0
LWPOLYLINE
  5
29351
330
29332
100
AcDbEntity
  8
Pel_Muntin_AS
100
AcDbPolyline
 90
        4
 70
     1
 43
0.0
 10
53.375
 20
49.0498
 10
47.37567000000001
 20
49.0498
 10
47.37567000000001
 20
38.6006
 10
53.375
 20
38.6006
  0
LWPOLYLINE
  5
29352
330
29332
100
AcDbEntity
  8
Pel_Muntin_AS
100
AcDbPolyline
 90
        4
 70
     1
 43
0.0
 10
10.62433
 20
26.3994
 10
4.625000000000002
 20
26.3994
 10
4.625000000000002
 20
15.9502
 10
10.62433
 20
15.9502
  0
LWPOLYLINE
  5
29353
330
29332
100
AcDbEntity
  8
Pel_Muntin_AS
100
AcDbPolyline
 90
        4
 70
     1
 43
0.0
 10
17.49966000000001
 20
26.3994
 10
11.50033000000001
 20
26.3994
 10
11.50033000000001
 20
15.9502
 10
17.49966000000001
 20
15.9502
  0
LWPOLYLINE
  5
29354
330
29332
100
AcDbEntity
  8
Pel_Muntin_AS
100
AcDbPolyline
 90
        4
 70
     1
 43
0.0
 10
24.375
 20
26.3994
 10
18.37567
 20
26.3994
 10
18.37567
 20
15.9502
 10
24.375
 20
15.9502
  0
LWPOLYLINE
  5
29355
330
29332
100
AcDbEntity
  8
Pel_Muntin_AS
100
AcDbPolyline
 90
        4
 70
     1
 43
0.0
 10
39.62432999999999
 20
26.3994
 10
33.625
 20
26.3994
 10
33.625
 20
15.9502
 10
39.62432999999999
 20
15.9502
  0
LWPOLYLINE
  5
29356
330
29332
100
AcDbEntity
  8
Pel_Muntin_AS
100
AcDbPolyline
 90
        4
 70
     1
 43
0.0
 10
46.49966
 20
26.3994
 10
40.50032999999999
 20
26.3994
 10
40.50032999999999
 20
15.9502
 10
46.49966
 20
15.9502
  0
LWPOLYLINE
  5
29357
330
29332
100
AcDbEntity
  8
Pel_Muntin_AS
100
AcDbPolyline
 90
        4
 70
     1
 43
0.0
 10
53.375
 20
26.3994
 10
47.37567000000001
 20
26.3994
 10
47.37567000000001
 20
15.9502
 10
53.375
 20
15.9502
  0
ENDBLK
  5
2935B
330
29332
100
AcDbEntity
  8
0
100
AcDbBlockEnd
  0
BLOCK
  5
2937F
330
2935D
100
AcDbEntity
  8
0
100
AcDbBlockBegin
  2
ASPCICM2-2959T
 70
     0
 10
0.0
 20
0.0
 30
0.0
  3
ASPCICM2-2959T
  1

  0
LWPOLYLINE
  5
2935E
330
2935D
100
AcDbEntity
  8
Pel_Frame_Outside
100
AcDbPolyline
 90
        8
 70
     1
 43
0.0
 10
29.0
 20
0.0
 10
29.0
 20
59.0
 10
0.0000000000000027
 20
59.0
 10
0.0000000000000027
 20
0.0
 10
29.0
 20
0.0
 10
29.0
 20
59.0
 10
58.0
 20
59.0
 10
58.0
 20
0.0
  0
LWPOLYLINE
  5
2935F
330
2935D
100
AcDbEntity
  8
Pel_Sash_Outside
100
AcDbPolyline
 90
        4
 70
     1
 43
0.0
 10
30.625
 20
1.624999999999999
 10
30.625
 20
57.375
 10
56.375
 20
57.375
 10
56.375
 20
1.624999999999999
  0
LWPOLYLINE
  5
29360
330
2935D
100
AcDbEntity
  8
Pel_Sash_Inside
100
AcDbPolyline
 90
        4
 70
     1
 43
0.0
 10
33.625
 20
4.624999999999999
 10
33.625
 20
54.375
 10
53.375
 20
54.375
 10
53.375
 20
4.624999999999999
  0
LWPOLYLINE
  5
29361
330
2935D
100
AcDbEntity
  8
Pel_Hinging
 48
6.0
100
AcDbPolyline
 90
        3
 70
     0
 43
0.0
 10
30.625
 20
1.624999999999999
 10
56.375
 20
29.5
 10
30.625
 20
57.375
  0
LWPOLYLINE
  5
29362
330
2935D
100
AcDbEntity
  8
Pel_Sash_Outside
100
AcDbPolyline
 90
        4
 70
     1
 43
0.0
 10
1.625000000000002
 20
57.375
 10
27.37500000000001
 20
57.375
 10
27.37500000000001
 20
1.624999999999999
 10
1.625000000000002
 20
1.624999999999999
  0
LWPOLYLINE
  5
29363
330
2935D
100
AcDbEntity
  8
Pel_Sash_Inside
100
AcDbPolyline
 90
        4
 70
     1
 43
0.0
 10
24.375
 20
54.375
 10
24.375
 20
4.624999999999999
 10
4.625000000000002
 20
4.624999999999999
 10
4.625000000000002
 20
54.375
  0
LWPOLYLINE
  5
29364
330
2935D
100
AcDbEntity
  8
Pel_Hinging
 48
6.0
100
AcDbPolyline
 90
        3
 70
     0
 43
0.0
 10
27.37500000000001
 20
1.624999999999999
 10
1.625000000000002
 20
29.21954608483798
 10
27.37500000000001
 20
57.375
  0
LWPOLYLINE
  5
29365
330
2935D
100
AcDbEntity
  8
Pel_Muntin_AS
100
AcDbPolyline
 90
        4
 70
     1
 43
0.0
 10
10.62433
 20
54.375
 10
4.625000000000002
 20
54.375
 10
4.625000000000002
 20
42.5945
 10
10.62433
 20
42.5945
  0
LWPOLYLINE
  5
29366
330
2935D
100
AcDbEntity
  8
Pel_Muntin_AS
100
AcDbPolyline
 90
        4
 70
     1
 43
0.0
 10
10.62433
 20
16.4055
 10
4.625000000000002
 20
16.4055
 10
4.625000000000002
 20
4.624999999999999
 10
10.62433
 20
4.624999999999999
  0
LWPOLYLINE
  5
29367
330
2935D
100
AcDbEntity
  8
Pel_Muntin_AS
100
AcDbPolyline
 90
        4
 70
     1
 43
0.0
 10
17.49966000000001
 20
16.4055
 10
11.50033000000001
 20
16.4055
 10
11.50033000000001
 20
4.624999999999999
 10
17.49966000000001
 20
4.624999999999999
  0
LWPOLYLINE
  5
29368
330
2935D
100
AcDbEntity
  8
Pel_Muntin_AS
100
AcDbPolyline
 90
        4
 70
     1
 43
0.0
 10
24.375
 20
16.4055
 10
18.37567
 20
16.4055
 10
18.37567
 20
4.624999999999999
 10
24.375
 20
4.624999999999999
  0
LWPOLYLINE
  5
29369
330
2935D
100
AcDbEntity
  8
Pel_Muntin_AS
100
AcDbPolyline
 90
        4
 70
     1
 43
0.0
 10
17.49966000000001
 20
54.375
 10
11.50033000000001
 20
54.375
 10
11.50033000000001
 20
42.5945
 10
17.49966000000001
 20
42.5945
  0
LWPOLYLINE
  5
2936A
330
2935D
100
AcDbEntity
  8
Pel_Muntin_AS
100
AcDbPolyline
 90
        4
 70
     1
 43
0.0
 10
24.375
 20
54.375
 10
18.37567
 20
54.375
 10
18.37567
 20
42.5945
 10
24.375
 20
42.5945
  0
LWPOLYLINE
  5
2936B
330
2935D
100
AcDbEntity
  8
Pel_Muntin_AS
100
AcDbPolyline
 90
        4
 70
     1
 43
0.0
 10
39.62432999999999
 20
54.375
 10
33.625
 20
54.375
 10
33.625
 20
42.5945
 10
39.62432999999999
 20
42.5945
  0
LWPOLYLINE
  5
2936C
330
2935D
100
AcDbEntity
  8
Pel_Muntin_AS
100
AcDbPolyline
 90
        4
 70
     1
 43
0.0
 10
39.62432999999999
 20
16.4055
 10
33.625
 20
16.4055
 10
33.625
 20
4.624999999999999
 10
39.62432999999999
 20
4.624999999999999
  0
LWPOLYLINE
  5
2936D
330
2935D
100
AcDbEntity
  8
Pel_Muntin_AS
100
AcDbPolyline
 90
        4
 70
     1
 43
0.0
 10
46.49966
 20
16.4055
 10
40.50032999999999
 20
16.4055
 10
40.50032999999999
 20
4.624999999999999
 10
46.49966
 20
4.624999999999999
  0
LWPOLYLINE
  5
2936E
330
2935D
100
AcDbEntity
  8
Pel_Muntin_AS
100
AcDbPolyline
 90
        4
 70
     1
 43
0.0
 10
46.49966
 20
54.375
 10
40.50032999999999
 20
54.375
 10
40.50032999999999
 20
42.5945
 10
46.49966
 20
42.5945
  0
LWPOLYLINE
  5
2936F
330
2935D
100
AcDbEntity
  8
Pel_Muntin_AS
100
AcDbPolyline
 90
        4
 70
     1
 43
0.0
 10
53.375
 20
54.375
 10
47.37567000000001
 20
54.375
 10
47.37567000000001
 20
42.5945
 10
53.375
 20
42.5945
  0
LWPOLYLINE
  5
29370
330
2935D
100
AcDbEntity
  8
Pel_Muntin_AS
100
AcDbPolyline
 90
        4
 70
     1
 43
0.0
 10
53.375
 20
16.4055
 10
47.37567000000001
 20
16.4055
 10
47.37567000000001
 20
4.624999999999999
 10
53.375
 20
4.624999999999999
  0
LWPOLYLINE
  5
29371
330
2935D
100
AcDbEntity
  8
Pel_Muntin_AS
100
AcDbPolyline
 90
        4
 70
     1
 43
0.0
 10
10.62433999999999
 20
29.062
 10
4.625009999999991
 20
29.062
 10
4.625009999999991
 20
17.2815
 10
10.62433999999999
 20
17.2815
  0
LWPOLYLINE
  5
29372
330
2935D
100
AcDbEntity
  8
Pel_Muntin_AS
100
AcDbPolyline
 90
        4
 70
     1
 43
0.0
 10
17.49967
 20
29.062
 10
11.50034
 20
29.062
 10
11.50034
 20
17.2815
 10
17.49967
 20
17.2815
  0
LWPOLYLINE
  5
29373
330
2935D
100
AcDbEntity
  8
Pel_Muntin_AS
100
AcDbPolyline
 90
        4
 70
     1
 43
0.0
 10
24.37500999999999
 20
29.062
 10
18.37567999999999
 20
29.062
 10
18.37567999999999
 20
17.2815
 10
24.37500999999999
 20
17.2815
  0
LWPOLYLINE
  5
29374
330
2935D
100
AcDbEntity
  8
Pel_Muntin_AS
100
AcDbPolyline
 90
        4
 70
     1
 43
0.0
 10
39.62433999999998
 20
29.062
 10
33.62500999999999
 20
29.062
 10
33.62500999999999
 20
17.2815
 10
39.62433999999998
 20
17.2815
  0
LWPOLYLINE
  5
29375
330
2935D
100
AcDbEntity
  8
Pel_Muntin_AS
100
AcDbPolyline
 90
        4
 70
     1
 43
0.0
 10
46.49966999999999
 20
29.062
 10
40.50033999999998
 20
29.062
 10
40.50033999999998
 20
17.2815
 10
46.49966999999999
 20
17.2815
  0
LWPOLYLINE
  5
29376
330
2935D
100
AcDbEntity
  8
Pel_Muntin_AS
100
AcDbPolyline
 90
        4
 70
     1
 43
0.0
 10
53.37500999999999
 20
29.062
 10
47.37568
 20
29.062
 10
47.37568
 20
17.2815
 10
53.37500999999999
 20
17.2815
  0
LWPOLYLINE
  5
29377
330
2935D
100
AcDbEntity
  8
Pel_Muntin_AS
100
AcDbPolyline
 90
        4
 70
     1
 43
0.0
 10
10.62433999999999
 20
41.7185
 10
4.625009999999991
 20
41.7185
 10
4.625009999999991
 20
29.938
 10
10.62433999999999
 20
29.938
  0
LWPOLYLINE
  5
29378
330
2935D
100
AcDbEntity
  8
Pel_Muntin_AS
100
AcDbPolyline
 90
        4
 70
     1
 43
0.0
 10
17.49967
 20
41.7185
 10
11.50034
 20
41.7185
 10
11.50034
 20
29.938
 10
17.49967
 20
29.938
  0
LWPOLYLINE
  5
29379
330
2935D
100
AcDbEntity
  8
Pel_Muntin_AS
100
AcDbPolyline
 90
        4
 70
     1
 43
0.0
 10
24.37500999999999
 20
41.7185
 10
18.37567999999999
 20
41.7185
 10
18.37567999999999
 20
29.938
 10
24.37500999999999
 20
29.938
  0
LWPOLYLINE
  5
2937A
330
2935D
100
AcDbEntity
  8
Pel_Muntin_AS
100
AcDbPolyline
 90
        4
 70
     1
 43
0.0
 10
39.62433999999998
 20
41.7185
 10
33.62500999999999
 20
41.7185
 10
33.62500999999999
 20
29.938
 10
39.62433999999998
 20
29.938
  0
LWPOLYLINE
  5
2937B
330
2935D
100
AcDbEntity
  8
Pel_Muntin_AS
100
AcDbPolyline
 90
        4
 70
     1
 43
0.0
 10
46.49966999999999
 20
41.7185
 10
40.50033999999998
 20
41.7185
 10
40.50033999999998
 20
29.938
 10
46.49966999999999
 20
29.938
  0
LWPOLYLINE
  5
2937C
330
2935D
100
AcDbEntity
  8
Pel_Muntin_AS
100
AcDbPolyline
 90
        4
 70
     1
 43
0.0
 10
53.37500999999999
 20
41.7185
 10
47.37568
 20
41.7185
 10
47.37568
 20
29.938
 10
53.37500999999999
 20
29.938
  0
ENDBLK
  5
29380
330
2935D
100
AcDbEntity
  8
0
100
AcDbBlockEnd
  0
BLOCK
  5
293A4
330
29382
100
AcDbEntity
  8
0
100
AcDbBlockBegin
  2
ASPCICM2-2953T
 70
     0
 10
0.0
 20
0.0
 30
0.0
  3
ASPCICM2-2953T
  1

  0
LWPOLYLINE
  5
29383
330
29382
100
AcDbEntity
  8
Pel_Frame_Outside
100
AcDbPolyline
 90
        8
 70
     1
 43
0.0
 10
29.0
 20
0.0
 10
29.0
 20
53.0
 10
0.0
 20
53.0
 10
0.0
 20
0.0
 10
29.0
 20
0.0
 10
29.0
 20
53.0
 10
58.0
 20
53.0
 10
58.0
 20
0.0
  0
LWPOLYLINE
  5
29384
330
29382
100
AcDbEntity
  8
Pel_Sash_Outside
100
AcDbPolyline
 90
        4
 70
     1
 43
0.0
 10
30.625
 20
1.625
 10
30.625
 20
51.375
 10
56.375
 20
51.375
 10
56.375
 20
1.625
  0
LWPOLYLINE
  5
29385
330
29382
100
AcDbEntity
  8
Pel_Sash_Inside
100
AcDbPolyline
 90
        4
 70
     1
 43
0.0
 10
33.625
 20
4.625
 10
33.625
 20
48.375
 10
53.375
 20
48.375
 10
53.375
 20
4.625
  0
LWPOLYLINE
  5
29386
330
29382
100
AcDbEntity
  8
Pel_Hinging
 48
6.0
100
AcDbPolyline
 90
        3
 70
     0
 43
0.0
 10
30.625
 20
1.625
 10
56.375
 20
26.5
 10
30.625
 20
51.375
  0
LWPOLYLINE
  5
29387
330
29382
100
AcDbEntity
  8
Pel_Sash_Outside
100
AcDbPolyline
 90
        4
 70
     1
 43
0.0
 10
1.625
 20
51.375
 10
27.375
 20
51.375
 10
27.375
 20
1.625
 10
1.625
 20
1.625
  0
LWPOLYLINE
  5
29388
330
29382
100
AcDbEntity
  8
Pel_Sash_Inside
100
AcDbPolyline
 90
        4
 70
     1
 43
0.0
 10
24.375
 20
48.375
 10
24.375
 20
4.625
 10
4.625
 20
4.625
 10
4.625
 20
48.375
  0
LWPOLYLINE
  5
29389
330
29382
100
AcDbEntity
  8
Pel_Hinging
 48
6.0
100
AcDbPolyline
 90
        3
 70
     0
 43
0.0
 10
27.375
 20
1.625
 10
1.625
 20
26.5
 10
27.375
 20
51.375
  0
LWPOLYLINE
  5
2938A
330
29382
100
AcDbEntity
  8
Pel_Muntin_AS
100
AcDbPolyline
 90
        4
 70
     1
 43
0.0
 10
10.62433
 20
48.375
 10
4.625
 20
48.375
 10
4.625
 20
38.0945
 10
10.62433
 20
38.0945
  0
LWPOLYLINE
  5
2938B
330
29382
100
AcDbEntity
  8
Pel_Muntin_AS
100
AcDbPolyline
 90
        4
 70
     1
 43
0.0
 10
10.62433
 20
14.9055
 10
4.625
 20
14.9055
 10
4.625
 20
4.625
 10
10.62433
 20
4.625
  0
LWPOLYLINE
  5
2938C
330
29382
100
AcDbEntity
  8
Pel_Muntin_AS
100
AcDbPolyline
 90
        4
 70
     1
 43
0.0
 10
17.49966
 20
14.9055
 10
11.50033
 20
14.9055
 10
11.50033
 20
4.625
 10
17.49966
 20
4.625
  0
LWPOLYLINE
  5
2938D
330
29382
100
AcDbEntity
  8
Pel_Muntin_AS
100
AcDbPolyline
 90
        4
 70
     1
 43
0.0
 10
24.375
 20
14.9055
 10
18.37567
 20
14.9055
 10
18.37567
 20
4.625
 10
24.375
 20
4.625
  0
LWPOLYLINE
  5
2938E
330
29382
100
AcDbEntity
  8
Pel_Muntin_AS
100
AcDbPolyline
 90
        4
 70
     1
 43
0.0
 10
17.49966
 20
48.375
 10
11.50033
 20
48.375
 10
11.50033
 20
38.0945
 10
17.49966
 20
38.0945
  0
LWPOLYLINE
  5
2938F
330
29382
100
AcDbEntity
  8
Pel_Muntin_AS
100
AcDbPolyline
 90
        4
 70
     1
 43
0.0
 10
24.375
 20
48.375
 10
18.37567
 20
48.375
 10
18.37567
 20
38.0945
 10
24.375
 20
38.0945
  0
LWPOLYLINE
  5
29390
330
29382
100
AcDbEntity
  8
Pel_Muntin_AS
100
AcDbPolyline
 90
        4
 70
     1
 43
0.0
 10
39.62433
 20
48.375
 10
33.625
 20
48.375
 10
33.625
 20
38.0945
 10
39.62433
 20
38.0945
  0
LWPOLYLINE
  5
29391
330
29382
100
AcDbEntity
  8
Pel_Muntin_AS
100
AcDbPolyline
 90
        4
 70
     1
 43
0.0
 10
39.62433
 20
14.9055
 10
33.625
 20
14.9055
 10
33.625
 20
4.625
 10
39.62433
 20
4.625
  0
LWPOLYLINE
  5
29392
330
29382
100
AcDbEntity
  8
Pel_Muntin_AS
100
AcDbPolyline
 90
        4
 70
     1
 43
0.0
 10
46.49966
 20
14.9055
 10
40.50032999999999
 20
14.9055
 10
40.50032999999999
 20
4.625
 10
46.49966
 20
4.625
  0
LWPOLYLINE
  5
29393
330
29382
100
AcDbEntity
  8
Pel_Muntin_AS
100
AcDbPolyline
 90
        4
 70
     1
 43
0.0
 10
46.49966
 20
48.375
 10
40.50032999999999
 20
48.375
 10
40.50032999999999
 20
38.0945
 10
46.49966
 20
38.0945
  0
LWPOLYLINE
  5
29394
330
29382
100
AcDbEntity
  8
Pel_Muntin_AS
100
AcDbPolyline
 90
        4
 70
     1
 43
0.0
 10
53.375
 20
48.375
 10
47.37567
 20
48.375
 10
47.37567
 20
38.0945
 10
53.375
 20
38.0945
  0
LWPOLYLINE
  5
29395
330
29382
100
AcDbEntity
  8
Pel_Muntin_AS
100
AcDbPolyline
 90
        4
 70
     1
 43
0.0
 10
53.375
 20
14.9055
 10
47.37567
 20
14.9055
 10
47.37567
 20
4.625
 10
53.375
 20
4.625
  0
LWPOLYLINE
  5
29396
330
29382
100
AcDbEntity
  8
Pel_Muntin_AS
100
AcDbPolyline
 90
        4
 70
     1
 43
0.0
 10
39.62433
 20
26.062
 10
33.625
 20
26.062
 10
33.625
 20
15.7815
 10
39.62433
 20
15.7815
  0
LWPOLYLINE
  5
29397
330
29382
100
AcDbEntity
  8
Pel_Muntin_AS
100
AcDbPolyline
 90
        4
 70
     1
 43
0.0
 10
46.49966
 20
26.062
 10
40.50032999999999
 20
26.062
 10
40.50032999999999
 20
15.7815
 10
46.49966
 20
15.7815
  0
LWPOLYLINE
  5
29398
330
29382
100
AcDbEntity
  8
Pel_Muntin_AS
100
AcDbPolyline
 90
        4
 70
     1
 43
0.0
 10
53.375
 20
26.062
 10
47.37567
 20
26.062
 10
47.37567
 20
15.7815
 10
53.375
 20
15.7815
  0
LWPOLYLINE
  5
29399
330
29382
100
AcDbEntity
  8
Pel_Muntin_AS
100
AcDbPolyline
 90
        4
 70
     1
 43
0.0
 10
39.62433
 20
37.2185
 10
33.625
 20
37.2185
 10
33.625
 20
26.938
 10
39.62433
 20
26.938
  0
LWPOLYLINE
  5
2939A
330
29382
100
AcDbEntity
  8
Pel_Muntin_AS
100
AcDbPolyline
 90
        4
 70
     1
 43
0.0
 10
46.49966
 20
37.2185
 10
40.50032999999999
 20
37.2185
 10
40.50032999999999
 20
26.938
 10
46.49966
 20
26.938
  0
LWPOLYLINE
  5
2939B
330
29382
100
AcDbEntity
  8
Pel_Muntin_AS
100
AcDbPolyline
 90
        4
 70
     1
 43
0.0
 10
53.375
 20
37.2185
 10
47.37567
 20
37.2185
 10
47.37567
 20
26.938
 10
53.375
 20
26.938
  0
LWPOLYLINE
  5
2939C
330
29382
100
AcDbEntity
  8
Pel_Muntin_AS
100
AcDbPolyline
 90
        4
 70
     1
 43
0.0
 10
10.62433
 20
37.2185
 10
4.625
 20
37.2185
 10
4.625
 20
26.938
 10
10.62433
 20
26.938
  0
LWPOLYLINE
  5
2939D
330
29382
100
AcDbEntity
  8
Pel_Muntin_AS
100
AcDbPolyline
 90
        4
 70
     1
 43
0.0
 10
17.49966
 20
37.2185
 10
11.50032999999999
 20
37.2185
 10
11.50032999999999
 20
26.938
 10
17.49966
 20
26.938
  0
LWPOLYLINE
  5
2939E
330
29382
100
AcDbEntity
  8
Pel_Muntin_AS
100
AcDbPolyline
 90
        4
 70
     1
 43
0.0
 10
24.375
 20
37.2185
 10
18.37567
 20
37.2185
 10
18.37567
 20
26.938
 10
24.375
 20
26.938
  0
LWPOLYLINE
  5
2939F
330
29382
100
AcDbEntity
  8
Pel_Muntin_AS
100
AcDbPolyline
 90
        4
 70
     1
 43
0.0
 10
10.62433
 20
26.062
 10
4.625
 20
26.062
 10
4.625
 20
15.7815
 10
10.62433
 20
15.7815
  0
LWPOLYLINE
  5
293A0
330
29382
100
AcDbEntity
  8
Pel_Muntin_AS
100
AcDbPolyline
 90
        4
 70
     1
 43
0.0
 10
17.49966
 20
26.062
 10
11.50032999999999
 20
26.062
 10
11.50032999999999
 20
15.7815
 10
17.49966
 20
15.7815
  0
LWPOLYLINE
  5
293A1
330
29382
100
AcDbEntity
  8
Pel_Muntin_AS
100
AcDbPolyline
 90
        4
 70
     1
 43
0.0
 10
24.375
 20
26.062
 10
18.37567
 20
26.062
 10
18.37567
 20
15.7815
 10
24.375
 20
15.7815
  0
ENDBLK
  5
293A5
330
29382
100
AcDbEntity
  8
0
100
AcDbBlockEnd
  0
BLOCK
  5
293C3
330
293A7
100
AcDbEntity
  8
0
100
AcDbBlockBegin
  2
ASPCICM2-2947T
 70
     0
 10
0.0
 20
0.0
 30
0.0
  3
ASPCICM2-2947T
  1

  0
LWPOLYLINE
  5
293A8
330
293A7
100
AcDbEntity
  8
Pel_Frame_Outside
100
AcDbPolyline
 90
        8
 70
     1
 43
0.0
 10
29.0
 20
0.0
 10
29.0
 20
47.0
 10
0.0
 20
47.0
 10
0.0
 20
0.0
 10
29.0
 20
0.0
 10
29.0
 20
47.0
 10
58.0
 20
47.0
 10
58.0
 20
0.0
  0
LWPOLYLINE
  5
293A9
330
293A7
100
AcDbEntity
  8
Pel_Sash_Outside
100
AcDbPolyline
 90
        4
 70
     1
 43
0.0
 10
30.625
 20
1.625
 10
30.625
 20
45.375
 10
56.375
 20
45.375
 10
56.375
 20
1.625
  0
LWPOLYLINE
  5
293AA
330
293A7
100
AcDbEntity
  8
Pel_Sash_Inside
100
AcDbPolyline
 90
        4
 70
     1
 43
0.0
 10
33.625
 20
4.625
 10
33.625
 20
42.37499999999999
 10
53.375
 20
42.37499999999999
 10
53.375
 20
4.625
  0
LWPOLYLINE
  5
293AB
330
293A7
100
AcDbEntity
  8
Pel_Hinging
 48
6.0
100
AcDbPolyline
 90
        3
 70
     0
 43
0.0
 10
30.625
 20
1.625
 10
56.375
 20
23.5
 10
30.625
 20
45.375
  0
LWPOLYLINE
  5
293AC
330
293A7
100
AcDbEntity
  8
Pel_Sash_Outside
100
AcDbPolyline
 90
        4
 70
     1
 43
0.0
 10
1.625
 20
45.375
 10
27.375
 20
45.375
 10
27.375
 20
1.625
 10
1.625
 20
1.625
  0
LWPOLYLINE
  5
293AD
330
293A7
100
AcDbEntity
  8
Pel_Sash_Inside
100
AcDbPolyline
 90
        4
 70
     1
 43
0.0
 10
24.375
 20
42.37499999999999
 10
24.375
 20
4.625
 10
4.625
 20
4.625
 10
4.625
 20
42.37499999999999
  0
LWPOLYLINE
  5
293AE
330
293A7
100
AcDbEntity
  8
Pel_Hinging
 48
6.0
100
AcDbPolyline
 90
        3
 70
     0
 43
0.0
 10
27.375
 20
1.625
 10
1.625
 20
23.5
 10
27.375
 20
45.375
  0
LWPOLYLINE
  5
293AF
330
293A7
100
AcDbEntity
  8
Pel_Muntin_AS
100
AcDbPolyline
 90
        4
 70
     1
 43
0.0
 10
10.62433
 20
42.37499999999999
 10
4.625
 20
42.37499999999999
 10
4.625
 20
30.37567
 10
10.62433
 20
30.37567
  0
LWPOLYLINE
  5
293B0
330
293A7
100
AcDbEntity
  8
Pel_Muntin_AS
100
AcDbPolyline
 90
        4
 70
     1
 43
0.0
 10
10.62433
 20
29.49965999999999
 10
4.625
 20
29.49965999999999
 10
4.625
 20
17.50033
 10
10.62433
 20
17.50033
  0
LWPOLYLINE
  5
293B1
330
293A7
100
AcDbEntity
  8
Pel_Muntin_AS
100
AcDbPolyline
 90
        4
 70
     1
 43
0.0
 10
10.62433
 20
16.62432999999997
 10
4.625
 20
16.62432999999997
 10
4.625
 20
4.625
 10
10.62433
 20
4.625
  0
LWPOLYLINE
  5
293B2
330
293A7
100
AcDbEntity
  8
Pel_Muntin_AS
100
AcDbPolyline
 90
        4
 70
     1
 43
0.0
 10
17.49966
 20
16.62432999999997
 10
11.50033
 20
16.62432999999997
 10
11.50033
 20
4.625
 10
17.49966
 20
4.625
  0
LWPOLYLINE
  5
293B3
330
293A7
100
AcDbEntity
  8
Pel_Muntin_AS
100
AcDbPolyline
 90
        4
 70
     1
 43
0.0
 10
24.375
 20
16.62432999999997
 10
18.37567
 20
16.62432999999997
 10
18.37567
 20
4.625
 10
24.375
 20
4.625
  0
LWPOLYLINE
  5
293B4
330
293A7
100
AcDbEntity
  8
Pel_Muntin_AS
100
AcDbPolyline
 90
        4
 70
     1
 43
0.0
 10
24.375
 20
29.49965999999999
 10
18.37567
 20
29.49965999999999
 10
18.37567
 20
17.50033
 10
24.375
 20
17.50033
  0
LWPOLYLINE
  5
293B5
330
293A7
100
AcDbEntity
  8
Pel_Muntin_AS
100
AcDbPolyline
 90
        4
 70
     1
 43
0.0
 10
17.49966
 20
29.49965999999999
 10
11.50033
 20
29.49965999999999
 10
11.50033
 20
17.50033
 10
17.49966
 20
17.50033
  0
LWPOLYLINE
  5
293B6
330
293A7
100
AcDbEntity
  8
Pel_Muntin_AS
100
AcDbPolyline
 90
        4
 70
     1
 43
0.0
 10
17.49966
 20
42.37499999999999
 10
11.50033
 20
42.37499999999999
 10
11.50033
 20
30.37567
 10
17.49966
 20
30.37567
  0
LWPOLYLINE
  5
293B7
330
293A7
100
AcDbEntity
  8
Pel_Muntin_AS
100
AcDbPolyline
 90
        4
 70
     1
 43
0.0
 10
24.375
 20
42.37499999999999
 10
18.37567
 20
42.37499999999999
 10
18.37567
 20
30.37567
 10
24.375
 20
30.37567
  0
LWPOLYLINE
  5
293B8
330
293A7
100
AcDbEntity
  8
Pel_Muntin_AS
100
AcDbPolyline
 90
        4
 70
     1
 43
0.0
 10
39.62433
 20
42.37499999999999
 10
33.625
 20
42.37499999999999
 10
33.625
 20
30.37567
 10
39.62433
 20
30.37567
  0
LWPOLYLINE
  5
293B9
330
293A7
100
AcDbEntity
  8
Pel_Muntin_AS
100
AcDbPolyline
 90
        4
 70
     1
 43
0.0
 10
39.62433
 20
29.49965999999999
 10
33.625
 20
29.49965999999999
 10
33.625
 20
17.50033
 10
39.62433
 20
17.50033
  0
LWPOLYLINE
  5
293BA
330
293A7
100
AcDbEntity
  8
Pel_Muntin_AS
100
AcDbPolyline
 90
        4
 70
     1
 43
0.0
 10
39.62433
 20
16.62432999999997
 10
33.625
 20
16.62432999999997
 10
33.625
 20
4.625
 10
39.62433
 20
4.625
  0
LWPOLYLINE
  5
293BB
330
293A7
100
AcDbEntity
  8
Pel_Muntin_AS
100
AcDbPolyline
 90
        4
 70
     1
 43
0.0
 10
46.49966
 20
16.62432999999997
 10
40.50032999999999
 20
16.62432999999997
 10
40.50032999999999
 20
4.625
 10
46.49966
 20
4.625
  0
LWPOLYLINE
  5
293BC
330
293A7
100
AcDbEntity
  8
Pel_Muntin_AS
100
AcDbPolyline
 90
        4
 70
     1
 43
0.0
 10
46.49966
 20
29.49965999999999
 10
40.50032999999999
 20
29.49965999999999
 10
40.50032999999999
 20
17.50033
 10
46.49966
 20
17.50033
  0
LWPOLYLINE
  5
293BD
330
293A7
100
AcDbEntity
  8
Pel_Muntin_AS
100
AcDbPolyline
 90
        4
 70
     1
 43
0.0
 10
46.49966
 20
42.37499999999999
 10
40.50032999999999
 20
42.37499999999999
 10
40.50032999999999
 20
30.37567
 10
46.49966
 20
30.37567
  0
LWPOLYLINE
  5
293BE
330
293A7
100
AcDbEntity
  8
Pel_Muntin_AS
100
AcDbPolyline
 90
        4
 70
     1
 43
0.0
 10
53.375
 20
42.37499999999999
 10
47.37567
 20
42.37499999999999
 10
47.37567
 20
30.37567
 10
53.375
 20
30.37567
  0
LWPOLYLINE
  5
293BF
330
293A7
100
AcDbEntity
  8
Pel_Muntin_AS
100
AcDbPolyline
 90
        4
 70
     1
 43
0.0
 10
53.375
 20
29.49965999999999
 10
47.37567
 20
29.49965999999999
 10
47.37567
 20
17.50033
 10
53.375
 20
17.50033
  0
LWPOLYLINE
  5
293C0
330
293A7
100
AcDbEntity
  8
Pel_Muntin_AS
100
AcDbPolyline
 90
        4
 70
     1
 43
0.0
 10
53.375
 20
16.62432999999997
 10
47.37567
 20
16.62432999999997
 10
47.37567
 20
4.625
 10
53.375
 20
4.625
  0
ENDBLK
  5
293C4
330
293A7
100
AcDbEntity
  8
0
100
AcDbBlockEnd
  0
BLOCK
  5
293E2
330
293C6
100
AcDbEntity
  8
0
100
AcDbBlockBegin
  2
ASPCICM2-2941T
 70
     0
 10
0.0
 20
0.0
 30
0.0
  3
ASPCICM2-2941T
  1

  0
LWPOLYLINE
  5
293C7
330
293C6
100
AcDbEntity
  8
Pel_Frame_Outside
100
AcDbPolyline
 90
        8
 70
     1
 43
0.0
 10
29.0
 20
0.0
 10
29.0
 20
41.0
 10
0.0
 20
41.0
 10
0.0
 20
0.0
 10
29.0
 20
0.0
 10
29.0
 20
41.0
 10
58.0
 20
41.0
 10
58.0
 20
0.0
  0
LWPOLYLINE
  5
293C8
330
293C6
100
AcDbEntity
  8
Pel_Sash_Outside
100
AcDbPolyline
 90
        4
 70
     1
 43
0.0
 10
30.625
 20
1.625
 10
30.625
 20
39.375
 10
56.375
 20
39.375
 10
56.375
 20
1.625
  0
LWPOLYLINE
  5
293C9
330
293C6
100
AcDbEntity
  8
Pel_Sash_Inside
100
AcDbPolyline
 90
        4
 70
     1
 43
0.0
 10
33.625
 20
4.625
 10
33.625
 20
36.375
 10
53.375
 20
36.375
 10
53.375
 20
4.625
  0
LWPOLYLINE
  5
293CA
330
293C6
100
AcDbEntity
  8
Pel_Hinging
 48
6.0
100
AcDbPolyline
 90
        3
 70
     0
 43
0.0
 10
30.625
 20
1.625
 10
56.375
 20
20.5
 10
30.625
 20
39.375
  0
LWPOLYLINE
  5
293CB
330
293C6
100
AcDbEntity
  8
Pel_Sash_Outside
100
AcDbPolyline
 90
        4
 70
     1
 43
0.0
 10
1.625
 20
39.375
 10
27.375
 20
39.375
 10
27.375
 20
1.625
 10
1.625
 20
1.625
  0
LWPOLYLINE
  5
293CC
330
293C6
100
AcDbEntity
  8
Pel_Sash_Inside
100
AcDbPolyline
 90
        4
 70
     1
 43
0.0
 10
24.375
 20
36.375
 10
24.375
 20
4.625
 10
4.625
 20
4.625
 10
4.625
 20
36.375
  0
LWPOLYLINE
  5
293CD
330
293C6
100
AcDbEntity
  8
Pel_Hinging
 48
6.0
100
AcDbPolyline
 90
        3
 70
     0
 43
0.0
 10
27.375
 20
1.625
 10
1.625
 20
20.5
 10
27.375
 20
39.375
  0
LWPOLYLINE
  5
293CE
330
293C6
100
AcDbEntity
  8
Pel_Muntin_AS
100
AcDbPolyline
 90
        4
 70
     1
 43
0.0
 10
10.62433
 20
36.375
 10
4.625
 20
36.375
 10
4.625
 20
26.37567
 10
10.62433
 20
26.37567
  0
LWPOLYLINE
  5
293CF
330
293C6
100
AcDbEntity
  8
Pel_Muntin_AS
100
AcDbPolyline
 90
        4
 70
     1
 43
0.0
 10
10.62433
 20
25.49965999999999
 10
4.625
 20
25.49965999999999
 10
4.625
 20
15.50033
 10
10.62433
 20
15.50033
  0
LWPOLYLINE
  5
293D0
330
293C6
100
AcDbEntity
  8
Pel_Muntin_AS
100
AcDbPolyline
 90
        4
 70
     1
 43
0.0
 10
10.62433
 20
14.62432999999996
 10
4.625
 20
14.62432999999996
 10
4.625
 20
4.625
 10
10.62433
 20
4.625
  0
LWPOLYLINE
  5
293D1
330
293C6
100
AcDbEntity
  8
Pel_Muntin_AS
100
AcDbPolyline
 90
        4
 70
     1
 43
0.0
 10
17.49966
 20
14.62432999999996
 10
11.50033
 20
14.62432999999996
 10
11.50033
 20
4.625
 10
17.49966
 20
4.625
  0
LWPOLYLINE
  5
293D2
330
293C6
100
AcDbEntity
  8
Pel_Muntin_AS
100
AcDbPolyline
 90
        4
 70
     1
 43
0.0
 10
24.375
 20
14.62432999999996
 10
18.37567
 20
14.62432999999996
 10
18.37567
 20
4.625
 10
24.375
 20
4.625
  0
LWPOLYLINE
  5
293D3
330
293C6
100
AcDbEntity
  8
Pel_Muntin_AS
100
AcDbPolyline
 90
        4
 70
     1
 43
0.0
 10
24.375
 20
25.49965999999999
 10
18.37567
 20
25.49965999999999
 10
18.37567
 20
15.50033
 10
24.375
 20
15.50033
  0
LWPOLYLINE
  5
293D4
330
293C6
100
AcDbEntity
  8
Pel_Muntin_AS
100
AcDbPolyline
 90
        4
 70
     1
 43
0.0
 10
17.49966
 20
25.49965999999999
 10
11.50033
 20
25.49965999999999
 10
11.50033
 20
15.50033
 10
17.49966
 20
15.50033
  0
LWPOLYLINE
  5
293D5
330
293C6
100
AcDbEntity
  8
Pel_Muntin_AS
100
AcDbPolyline
 90
        4
 70
     1
 43
0.0
 10
17.49966
 20
36.375
 10
11.50033
 20
36.375
 10
11.50033
 20
26.37567
 10
17.49966
 20
26.37567
  0
LWPOLYLINE
  5
293D6
330
293C6
100
AcDbEntity
  8
Pel_Muntin_AS
100
AcDbPolyline
 90
        4
 70
     1
 43
0.0
 10
24.375
 20
36.375
 10
18.37567
 20
36.375
 10
18.37567
 20
26.37567
 10
24.375
 20
26.37567
  0
LWPOLYLINE
  5
293D7
330
293C6
100
AcDbEntity
  8
Pel_Muntin_AS
100
AcDbPolyline
 90
        4
 70
     1
 43
0.0
 10
39.62433
 20
36.375
 10
33.625
 20
36.375
 10
33.625
 20
26.37567
 10
39.62433
 20
26.37567
  0
LWPOLYLINE
  5
293D8
330
293C6
100
AcDbEntity
  8
Pel_Muntin_AS
100
AcDbPolyline
 90
        4
 70
     1
 43
0.0
 10
39.62433
 20
25.49965999999999
 10
33.625
 20
25.49965999999999
 10
33.625
 20
15.50033
 10
39.62433
 20
15.50033
  0
LWPOLYLINE
  5
293D9
330
293C6
100
AcDbEntity
  8
Pel_Muntin_AS
100
AcDbPolyline
 90
        4
 70
     1
 43
0.0
 10
39.62433
 20
14.62432999999996
 10
33.625
 20
14.62432999999996
 10
33.625
 20
4.625
 10
39.62433
 20
4.625
  0
LWPOLYLINE
  5
293DA
330
293C6
100
AcDbEntity
  8
Pel_Muntin_AS
100
AcDbPolyline
 90
        4
 70
     1
 43
0.0
 10
46.49966
 20
14.62432999999996
 10
40.50032999999999
 20
14.62432999999996
 10
40.50032999999999
 20
4.625
 10
46.49966
 20
4.625
  0
LWPOLYLINE
  5
293DB
330
293C6
100
AcDbEntity
  8
Pel_Muntin_AS
100
AcDbPolyline
 90
        4
 70
     1
 43
0.0
 10
46.49966
 20
25.49965999999999
 10
40.50032999999999
 20
25.49965999999999
 10
40.50032999999999
 20
15.50033
 10
46.49966
 20
15.50033
  0
LWPOLYLINE
  5
293DC
330
293C6
100
AcDbEntity
  8
Pel_Muntin_AS
100
AcDbPolyline
 90
        4
 70
     1
 43
0.0
 10
46.49966
 20
36.375
 10
40.50032999999999
 20
36.375
 10
40.50032999999999
 20
26.37567
 10
46.49966
 20
26.37567
  0
LWPOLYLINE
  5
293DD
330
293C6
100
AcDbEntity
  8
Pel_Muntin_AS
100
AcDbPolyline
 90
        4
 70
     1
 43
0.0
 10
53.375
 20
36.375
 10
47.37567
 20
36.375
 10
47.37567
 20
26.37567
 10
53.375
 20
26.37567
  0
LWPOLYLINE
  5
293DE
330
293C6
100
AcDbEntity
  8
Pel_Muntin_AS
100
AcDbPolyline
 90
        4
 70
     1
 43
0.0
 10
53.375
 20
25.49965999999999
 10
47.37567
 20
25.49965999999999
 10
47.37567
 20
15.50033
 10
53.375
 20
15.50033
  0
LWPOLYLINE
  5
293DF
330
293C6
100
AcDbEntity
  8
Pel_Muntin_AS
100
AcDbPolyline
 90
        4
 70
     1
 43
0.0
 10
53.375
 20
14.62432999999996
 10
47.37567
 20
14.62432999999996
 10
47.37567
 20
4.625
 10
53.375
 20
4.625
  0
ENDBLK
  5
293E3
330
293C6
100
AcDbEntity
  8
0
100
AcDbBlockEnd
  0
BLOCK
  5
29401
330
293E5
100
AcDbEntity
  8
0
100
AcDbBlockBegin
  2
ASPCICM2-2935T
 70
     0
 10
0.0
 20
0.0
 30
0.0
  3
ASPCICM2-2935T
  1

  0
LWPOLYLINE
  5
293E6
330
293E5
100
AcDbEntity
  8
Pel_Frame_Outside
100
AcDbPolyline
 90
        8
 70
     1
 43
0.0
 10
29.0
 20
0.0
 10
29.0
 20
35.0
 10
0.0
 20
35.0
 10
0.0
 20
0.0
 10
29.0
 20
0.0
 10
29.0
 20
35.0
 10
58.0
 20
35.0
 10
58.0
 20
0.0
  0
LWPOLYLINE
  5
293E7
330
293E5
100
AcDbEntity
  8
Pel_Sash_Outside
100
AcDbPolyline
 90
        4
 70
     1
 43
0.0
 10
30.625
 20
1.625
 10
30.625
 20
33.375
 10
56.375
 20
33.375
 10
56.375
 20
1.625
  0
LWPOLYLINE
  5
293E8
330
293E5
100
AcDbEntity
  8
Pel_Sash_Inside
100
AcDbPolyline
 90
        4
 70
     1
 43
0.0
 10
33.625
 20
4.625
 10
33.625
 20
30.375
 10
53.375
 20
30.375
 10
53.375
 20
4.625
  0
LWPOLYLINE
  5
293E9
330
293E5
100
AcDbEntity
  8
Pel_Hinging
 48
6.0
100
AcDbPolyline
 90
        3
 70
     0
 43
0.0
 10
30.625
 20
1.625
 10
56.375
 20
17.5
 10
30.625
 20
33.375
  0
LWPOLYLINE
  5
293EA
330
293E5
100
AcDbEntity
  8
Pel_Sash_Outside
100
AcDbPolyline
 90
        4
 70
     1
 43
0.0
 10
1.625
 20
33.375
 10
27.375
 20
33.375
 10
27.375
 20
1.625
 10
1.625
 20
1.625
  0
LWPOLYLINE
  5
293EB
330
293E5
100
AcDbEntity
  8
Pel_Sash_Inside
100
AcDbPolyline
 90
        4
 70
     1
 43
0.0
 10
24.375
 20
30.375
 10
24.375
 20
4.625
 10
4.625
 20
4.625
 10
4.625
 20
30.375
  0
LWPOLYLINE
  5
293EC
330
293E5
100
AcDbEntity
  8
Pel_Hinging
 48
6.0
100
AcDbPolyline
 90
        3
 70
     0
 43
0.0
 10
27.375
 20
1.625
 10
1.625
 20
17.5
 10
27.375
 20
33.375
  0
LWPOLYLINE
  5
293ED
330
293E5
100
AcDbEntity
  8
Pel_Muntin_AS
100
AcDbPolyline
 90
        4
 70
     1
 43
0.0
 10
10.62433
 20
30.375
 10
4.625
 20
30.375
 10
4.625
 20
22.37567
 10
10.62433
 20
22.37567
  0
LWPOLYLINE
  5
293EE
330
293E5
100
AcDbEntity
  8
Pel_Muntin_AS
100
AcDbPolyline
 90
        4
 70
     1
 43
0.0
 10
10.62433
 20
21.49966
 10
4.625
 20
21.49966
 10
4.625
 20
13.50033
 10
10.62433
 20
13.50033
  0
LWPOLYLINE
  5
293EF
330
293E5
100
AcDbEntity
  8
Pel_Muntin_AS
100
AcDbPolyline
 90
        4
 70
     1
 43
0.0
 10
10.62433
 20
12.62433
 10
4.625
 20
12.62433
 10
4.625
 20
4.625
 10
10.62433
 20
4.625
  0
LWPOLYLINE
  5
293F0
330
293E5
100
AcDbEntity
  8
Pel_Muntin_AS
100
AcDbPolyline
 90
        4
 70
     1
 43
0.0
 10
17.49966
 20
12.62433
 10
11.50033
 20
12.62433
 10
11.50033
 20
4.625
 10
17.49966
 20
4.625
  0
LWPOLYLINE
  5
293F1
330
293E5
100
AcDbEntity
  8
Pel_Muntin_AS
100
AcDbPolyline
 90
        4
 70
     1
 43
0.0
 10
24.375
 20
12.62433
 10
18.37567
 20
12.62433
 10
18.37567
 20
4.625
 10
24.375
 20
4.625
  0
LWPOLYLINE
  5
293F2
330
293E5
100
AcDbEntity
  8
Pel_Muntin_AS
100
AcDbPolyline
 90
        4
 70
     1
 43
0.0
 10
24.375
 20
21.49966
 10
18.37567
 20
21.49966
 10
18.37567
 20
13.50033
 10
24.375
 20
13.50033
  0
LWPOLYLINE
  5
293F3
330
293E5
100
AcDbEntity
  8
Pel_Muntin_AS
100
AcDbPolyline
 90
        4
 70
     1
 43
0.0
 10
17.49966
 20
21.49966
 10
11.50033
 20
21.49966
 10
11.50033
 20
13.50033
 10
17.49966
 20
13.50033
  0
LWPOLYLINE
  5
293F4
330
293E5
100
AcDbEntity
  8
Pel_Muntin_AS
100
AcDbPolyline
 90
        4
 70
     1
 43
0.0
 10
17.49966
 20
30.375
 10
11.50033
 20
30.375
 10
11.50033
 20
22.37567
 10
17.49966
 20
22.37567
  0
LWPOLYLINE
  5
293F5
330
293E5
100
AcDbEntity
  8
Pel_Muntin_AS
100
AcDbPolyline
 90
        4
 70
     1
 43
0.0
 10
24.375
 20
30.375
 10
18.37567
 20
30.375
 10
18.37567
 20
22.37567
 10
24.375
 20
22.37567
  0
LWPOLYLINE
  5
293F6
330
293E5
100
AcDbEntity
  8
Pel_Muntin_AS
100
AcDbPolyline
 90
        4
 70
     1
 43
0.0
 10
39.62433
 20
30.375
 10
33.625
 20
30.375
 10
33.625
 20
22.37567
 10
39.62433
 20
22.37567
  0
LWPOLYLINE
  5
293F7
330
293E5
100
AcDbEntity
  8
Pel_Muntin_AS
100
AcDbPolyline
 90
        4
 70
     1
 43
0.0
 10
39.62433
 20
21.49966
 10
33.625
 20
21.49966
 10
33.625
 20
13.50033
 10
39.62433
 20
13.50033
  0
LWPOLYLINE
  5
293F8
330
293E5
100
AcDbEntity
  8
Pel_Muntin_AS
100
AcDbPolyline
 90
        4
 70
     1
 43
0.0
 10
39.62433
 20
12.62433
 10
33.625
 20
12.62433
 10
33.625
 20
4.625
 10
39.62433
 20
4.625
  0
LWPOLYLINE
  5
293F9
330
293E5
100
AcDbEntity
  8
Pel_Muntin_AS
100
AcDbPolyline
 90
        4
 70
     1
 43
0.0
 10
46.49966
 20
12.62433
 10
40.50032999999999
 20
12.62433
 10
40.50032999999999
 20
4.625
 10
46.49966
 20
4.625
  0
LWPOLYLINE
  5
293FA
330
293E5
100
AcDbEntity
  8
Pel_Muntin_AS
100
AcDbPolyline
 90
        4
 70
     1
 43
0.0
 10
46.49966
 20
21.49966
 10
40.50032999999999
 20
21.49966
 10
40.50032999999999
 20
13.50033
 10
46.49966
 20
13.50033
  0
LWPOLYLINE
  5
293FB
330
293E5
100
AcDbEntity
  8
Pel_Muntin_AS
100
AcDbPolyline
 90
        4
 70
     1
 43
0.0
 10
46.49966
 20
30.375
 10
40.50032999999999
 20
30.375
 10
40.50032999999999
 20
22.37567
 10
46.49966
 20
22.37567
  0
LWPOLYLINE
  5
293FC
330
293E5
100
AcDbEntity
  8
Pel_Muntin_AS
100
AcDbPolyline
 90
        4
 70
     1
 43
0.0
 10
53.375
 20
30.375
 10
47.37567
 20
30.375
 10
47.37567
 20
22.37567
 10
53.375
 20
22.37567
  0
LWPOLYLINE
  5
293FD
330
293E5
100
AcDbEntity
  8
Pel_Muntin_AS
100
AcDbPolyline
 90
        4
 70
     1
 43
0.0
 10
53.375
 20
21.49966
 10
47.37567
 20
21.49966
 10
47.37567
 20
13.50033
 10
53.375
 20
13.50033
  0
LWPOLYLINE
  5
293FE
330
293E5
100
AcDbEntity
  8
Pel_Muntin_AS
100
AcDbPolyline
 90
        4
 70
     1
 43
0.0
 10
53.375
 20
12.62433
 10
47.37567
 20
12.62433
 10
47.37567
 20
4.625
 10
53.375
 20
4.625
  0
ENDBLK
  5
29402
330
293E5
100
AcDbEntity
  8
0
100
AcDbBlockEnd
  0
BLOCK
  5
2941A
330
29404
100
AcDbEntity
  8
0
100
AcDbBlockBegin
  2
ASPCICM2-2535T
 70
     0
 10
0.0
 20
0.0
 30
0.0
  3
ASPCICM2-2535T
  1

  0
LWPOLYLINE
  5
29405
330
29404
100
AcDbEntity
  8
Pel_Frame_Outside
100
AcDbPolyline
 90
        8
 70
     1
 43
0.0
 10
25.0
 20
0.0
 10
25.0
 20
35.0
 10
0.0
 20
35.0
 10
0.0
 20
0.0
 10
25.0
 20
0.0
 10
25.0
 20
35.0
 10
50.0
 20
35.0
 10
50.0
 20
0.0
  0
LWPOLYLINE
  5
29406
330
29404
100
AcDbEntity
  8
Pel_Sash_Outside
100
AcDbPolyline
 90
        4
 70
     1
 43
0.0
 10
26.625
 20
1.625
 10
26.625
 20
33.375
 10
48.375
 20
33.375
 10
48.375
 20
1.625
  0
LWPOLYLINE
  5
29407
330
29404
100
AcDbEntity
  8
Pel_Sash_Inside
100
AcDbPolyline
 90
        4
 70
     1
 43
0.0
 10
29.625
 20
4.625
 10
29.625
 20
30.375
 10
45.375
 20
30.375
 10
45.375
 20
4.625
  0
LWPOLYLINE
  5
29408
330
29404
100
AcDbEntity
  8
Pel_Hinging
 48
6.0
100
AcDbPolyline
 90
        3
 70
     0
 43
0.0
 10
26.625
 20
1.625
 10
48.375
 20
17.5
 10
26.625
 20
33.375
  0
LWPOLYLINE
  5
29409
330
29404
100
AcDbEntity
  8
Pel_Sash_Outside
100
AcDbPolyline
 90
        4
 70
     1
 43
0.0
 10
1.625
 20
33.375
 10
23.375
 20
33.375
 10
23.375
 20
1.625
 10
1.625
 20
1.625
  0
LWPOLYLINE
  5
2940A
330
29404
100
AcDbEntity
  8
Pel_Sash_Inside
100
AcDbPolyline
 90
        4
 70
     1
 43
0.0
 10
20.375
 20
30.375
 10
20.375
 20
4.625
 10
4.625
 20
4.625
 10
4.625
 20
30.375
  0
LWPOLYLINE
  5
2940B
330
29404
100
AcDbEntity
  8
Pel_Hinging
 48
6.0
100
AcDbPolyline
 90
        3
 70
     0
 43
0.0
 10
23.375
 20
1.625
 10
1.625
 20
17.5
 10
23.375
 20
33.375
  0
LWPOLYLINE
  5
2940C
330
29404
100
AcDbEntity
  8
Pel_Muntin_AS
100
AcDbPolyline
 90
        4
 70
     1
 43
0.0
 10
45.375
 20
30.375
 10
37.938
 20
30.375
 10
37.938
 20
22.37567000000002
 10
45.375
 20
22.37567000000002
  0
LWPOLYLINE
  5
2940D
330
29404
100
AcDbEntity
  8
Pel_Muntin_AS
100
AcDbPolyline
 90
        4
 70
     1
 43
0.0
 10
37.062
 20
30.375
 10
29.625
 20
30.375
 10
29.625
 20
22.37567000000002
 10
37.062
 20
22.37567000000002
  0
LWPOLYLINE
  5
2940E
330
29404
100
AcDbEntity
  8
Pel_Muntin_AS
100
AcDbPolyline
 90
        4
 70
     1
 43
0.0
 10
45.375
 20
12.62432999999999
 10
37.938
 20
12.62432999999999
 10
37.938
 20
4.625
 10
45.375
 20
4.625
  0
LWPOLYLINE
  5
2940F
330
29404
100
AcDbEntity
  8
Pel_Muntin_AS
100
AcDbPolyline
 90
        4
 70
     1
 43
0.0
 10
37.062
 20
12.62432999999999
 10
29.625
 20
12.62432999999999
 10
29.625
 20
4.625
 10
37.062
 20
4.625
  0
LWPOLYLINE
  5
29410
330
29404
100
AcDbEntity
  8
Pel_Muntin_AS
100
AcDbPolyline
 90
        4
 70
     1
 43
0.0
 10
20.375
 20
12.62432999999999
 10
12.938
 20
12.62432999999999
 10
12.938
 20
4.625
 10
20.375
 20
4.625
  0
LWPOLYLINE
  5
29411
330
29404
100
AcDbEntity
  8
Pel_Muntin_AS
100
AcDbPolyline
 90
        4
 70
     1
 43
0.0
 10
20.375
 20
30.375
 10
12.938
 20
30.375
 10
12.938
 20
22.37567000000002
 10
20.375
 20
22.37567000000002
  0
LWPOLYLINE
  5
29412
330
29404
100
AcDbEntity
  8
Pel_Muntin_AS
100
AcDbPolyline
 90
        4
 70
     1
 43
0.0
 10
12.062
 20
12.62432999999999
 10
4.625
 20
12.62432999999999
 10
4.625
 20
4.625
 10
12.062
 20
4.625
  0
LWPOLYLINE
  5
29413
330
29404
100
AcDbEntity
  8
Pel_Muntin_AS
100
AcDbPolyline
 90
        4
 70
     1
 43
0.0
 10
12.062
 20
30.375
 10
4.625
 20
30.375
 10
4.625
 20
22.37567000000002
 10
12.062
 20
22.37567000000002
  0
LWPOLYLINE
  5
29414
330
29404
100
AcDbEntity
  8
Pel_Muntin_AS
100
AcDbPolyline
 90
        4
 70
     1
 43
0.0
 10
45.375
 20
21.49966499999999
 10
37.938
 20
21.49966499999999
 10
37.938
 20
13.500335
 10
45.375
 20
13.500335
  0
LWPOLYLINE
  5
29415
330
29404
100
AcDbEntity
  8
Pel_Muntin_AS
100
AcDbPolyline
 90
        4
 70
     1
 43
0.0
 10
37.062
 20
21.49966499999999
 10
29.625
 20
21.49966499999999
 10
29.625
 20
13.500335
 10
37.062
 20
13.500335
  0
LWPOLYLINE
  5
29416
330
29404
100
AcDbEntity
  8
Pel_Muntin_AS
100
AcDbPolyline
 90
        4
 70
     1
 43
0.0
 10
20.375
 20
21.49966499999999
 10
12.938
 20
21.49966499999999
 10
12.938
 20
13.500335
 10
20.375
 20
13.500335
  0
LWPOLYLINE
  5
29417
330
29404
100
AcDbEntity
  8
Pel_Muntin_AS
100
AcDbPolyline
 90
        4
 70
     1
 43
0.0
 10
12.062
 20
21.49966499999999
 10
4.625
 20
21.49966499999999
 10
4.625
 20
13.500335
 10
12.062
 20
13.500335
  0
ENDBLK
  5
2941B
330
29404
100
AcDbEntity
  8
0
100
AcDbBlockEnd
  0
BLOCK
  5
29433
330
2941D
100
AcDbEntity
  8
0
100
AcDbBlockBegin
  2
ASPCICM2-2335T
 70
     0
 10
0.0
 20
0.0
 30
0.0
  3
ASPCICM2-2335T
  1

  0
LWPOLYLINE
  5
2941E
330
2941D
100
AcDbEntity
  8
Pel_Frame_Outside
100
AcDbPolyline
 90
        8
 70
     1
 43
0.0
 10
23.0
 20
0.0
 10
23.0
 20
35.0
 10
0.0
 20
35.0
 10
0.0
 20
0.0
 10
23.0
 20
0.0
 10
23.0
 20
35.0
 10
46.0
 20
35.0
 10
46.0
 20
0.0
  0
LWPOLYLINE
  5
2941F
330
2941D
100
AcDbEntity
  8
Pel_Sash_Outside
100
AcDbPolyline
 90
        4
 70
     1
 43
0.0
 10
24.625
 20
1.625
 10
24.625
 20
33.375
 10
44.375
 20
33.375
 10
44.375
 20
1.625
  0
LWPOLYLINE
  5
29420
330
2941D
100
AcDbEntity
  8
Pel_Sash_Inside
100
AcDbPolyline
 90
        4
 70
     1
 43
0.0
 10
27.625
 20
4.625
 10
27.625
 20
30.375
 10
41.375
 20
30.375
 10
41.375
 20
4.625
  0
LWPOLYLINE
  5
29421
330
2941D
100
AcDbEntity
  8
Pel_Hinging
 48
6.0
100
AcDbPolyline
 90
        3
 70
     0
 43
0.0
 10
24.625
 20
1.625
 10
44.375
 20
17.5
 10
24.625
 20
33.375
  0
LWPOLYLINE
  5
29422
330
2941D
100
AcDbEntity
  8
Pel_Sash_Outside
100
AcDbPolyline
 90
        4
 70
     1
 43
0.0
 10
1.625
 20
33.375
 10
21.375
 20
33.375
 10
21.375
 20
1.625
 10
1.625
 20
1.625
  0
LWPOLYLINE
  5
29423
330
2941D
100
AcDbEntity
  8
Pel_Sash_Inside
100
AcDbPolyline
 90
        4
 70
     1
 43
0.0
 10
18.375
 20
30.375
 10
18.375
 20
4.625
 10
4.625
 20
4.625
 10
4.625
 20
30.375
  0
LWPOLYLINE
  5
29424
330
2941D
100
AcDbEntity
  8
Pel_Hinging
 48
6.0
100
AcDbPolyline
 90
        3
 70
     0
 43
0.0
 10
21.375
 20
1.625
 10
1.625
 20
17.5
 10
21.375
 20
33.375
  0
LWPOLYLINE
  5
29425
330
2941D
100
AcDbEntity
  8
Pel_Muntin_AS
100
AcDbPolyline
 90
        4
 70
     1
 43
0.0
 10
41.375
 20
30.375
 10
34.938
 20
30.375
 10
34.938
 20
22.37567000000002
 10
41.375
 20
22.37567000000002
  0
LWPOLYLINE
  5
29426
330
2941D
100
AcDbEntity
  8
Pel_Muntin_AS
100
AcDbPolyline
 90
        4
 70
     1
 43
0.0
 10
34.062
 20
30.375
 10
27.625
 20
30.375
 10
27.625
 20
22.37567000000002
 10
34.062
 20
22.37567000000002
  0
LWPOLYLINE
  5
29427
330
2941D
100
AcDbEntity
  8
Pel_Muntin_AS
100
AcDbPolyline
 90
        4
 70
     1
 43
0.0
 10
34.062
 20
21.49966999999998
 10
27.625
 20
21.49966999999998
 10
27.625
 20
13.50033000000002
 10
34.062
 20
13.50033000000002
  0
LWPOLYLINE
  5
29428
330
2941D
100
AcDbEntity
  8
Pel_Muntin_AS
100
AcDbPolyline
 90
        4
 70
     1
 43
0.0
 10
41.375
 20
21.49966999999998
 10
34.938
 20
21.49966999999998
 10
34.938
 20
13.50033000000002
 10
41.375
 20
13.50033000000002
  0
LWPOLYLINE
  5
29429
330
2941D
100
AcDbEntity
  8
Pel_Muntin_AS
100
AcDbPolyline
 90
        4
 70
     1
 43
0.0
 10
41.375
 20
12.62432999999999
 10
34.938
 20
12.62432999999999
 10
34.938
 20
4.625
 10
41.375
 20
4.625
  0
LWPOLYLINE
  5
2942A
330
2941D
100
AcDbEntity
  8
Pel_Muntin_AS
100
AcDbPolyline
 90
        4
 70
     1
 43
0.0
 10
34.062
 20
12.62432999999999
 10
27.625
 20
12.62432999999999
 10
27.625
 20
4.625
 10
34.062
 20
4.625
  0
LWPOLYLINE
  5
2942B
330
2941D
100
AcDbEntity
  8
Pel_Muntin_AS
100
AcDbPolyline
 90
        4
 70
     1
 43
0.0
 10
18.375
 20
12.62432999999999
 10
11.938
 20
12.62432999999999
 10
11.938
 20
4.625
 10
18.375
 20
4.625
  0
LWPOLYLINE
  5
2942C
330
2941D
100
AcDbEntity
  8
Pel_Muntin_AS
100
AcDbPolyline
 90
        4
 70
     1
 43
0.0
 10
11.062
 20
12.62432999999999
 10
4.625
 20
12.62432999999999
 10
4.625
 20
4.625
 10
11.062
 20
4.625
  0
LWPOLYLINE
  5
2942D
330
2941D
100
AcDbEntity
  8
Pel_Muntin_AS
100
AcDbPolyline
 90
        4
 70
     1
 43
0.0
 10
11.062
 20
21.49966999999998
 10
4.625
 20
21.49966999999998
 10
4.625
 20
13.50033000000002
 10
11.062
 20
13.50033000000002
  0
LWPOLYLINE
  5
2942E
330
2941D
100
AcDbEntity
  8
Pel_Muntin_AS
100
AcDbPolyline
 90
        4
 70
     1
 43
0.0
 10
18.375
 20
21.49966999999998
 10
11.938
 20
21.49966999999998
 10
11.938
 20
13.50033000000002
 10
18.375
 20
13.50033000000002
  0
LWPOLYLINE
  5
2942F
330
2941D
100
AcDbEntity
  8
Pel_Muntin_AS
100
AcDbPolyline
 90
        4
 70
     1
 43
0.0
 10
18.375
 20
30.375
 10
11.938
 20
30.375
 10
11.938
 20
22.37567000000002
 10
18.375
 20
22.37567000000002
  0
LWPOLYLINE
  5
29430
330
2941D
100
AcDbEntity
  8
Pel_Muntin_AS
100
AcDbPolyline
 90
        4
 70
     1
 43
0.0
 10
11.062
 20
30.375
 10
4.625
 20
30.375
 10
4.625
 20
22.37567000000002
 10
11.062
 20
22.37567000000002
  0
ENDBLK
  5
29434
330
2941D
100
AcDbEntity
  8
0
100
AcDbBlockEnd
  0
BLOCK
  5
2944C
330
29436
100
AcDbEntity
  8
0
100
AcDbBlockBegin
  2
ASPCICM2-2135T
 70
     0
 10
0.0
 20
0.0
 30
0.0
  3
ASPCICM2-2135T
  1

  0
LWPOLYLINE
  5
29437
330
29436
100
AcDbEntity
  8
Pel_Frame_Outside
100
AcDbPolyline
 90
        8
 70
     1
 43
0.0
 10
21.0
 20
0.0
 10
21.0
 20
35.0
 10
0.0
 20
35.0
 10
0.0
 20
0.0
 10
21.0
 20
0.0
 10
21.0
 20
35.0
 10
42.0
 20
35.0
 10
42.0
 20
0.0
  0
LWPOLYLINE
  5
29438
330
29436
100
AcDbEntity
  8
Pel_Sash_Outside
100
AcDbPolyline
 90
        4
 70
     1
 43
0.0
 10
22.625
 20
1.625
 10
22.625
 20
33.375
 10
40.375
 20
33.375
 10
40.375
 20
1.625
  0
LWPOLYLINE
  5
29439
330
29436
100
AcDbEntity
  8
Pel_Sash_Inside
100
AcDbPolyline
 90
        4
 70
     1
 43
0.0
 10
25.625
 20
4.625
 10
25.625
 20
30.375
 10
37.375
 20
30.375
 10
37.375
 20
4.625
  0
LWPOLYLINE
  5
2943A
330
29436
100
AcDbEntity
  8
Pel_Hinging
 48
6.0
100
AcDbPolyline
 90
        3
 70
     0
 43
0.0
 10
22.625
 20
1.625
 10
40.375
 20
17.5
 10
22.625
 20
33.375
  0
LWPOLYLINE
  5
2943B
330
29436
100
AcDbEntity
  8
Pel_Sash_Outside
100
AcDbPolyline
 90
        4
 70
     1
 43
0.0
 10
1.625
 20
33.375
 10
19.375
 20
33.375
 10
19.375
 20
1.625
 10
1.625
 20
1.625
  0
LWPOLYLINE
  5
2943C
330
29436
100
AcDbEntity
  8
Pel_Sash_Inside
100
AcDbPolyline
 90
        4
 70
     1
 43
0.0
 10
16.375
 20
30.375
 10
16.375
 20
4.625
 10
4.625
 20
4.625
 10
4.625
 20
30.375
  0
LWPOLYLINE
  5
2943D
330
29436
100
AcDbEntity
  8
Pel_Hinging
 48
6.0
100
AcDbPolyline
 90
        3
 70
     0
 43
0.0
 10
19.375
 20
1.625
 10
1.625
 20
17.5
 10
19.375
 20
33.375
  0
LWPOLYLINE
  5
2943E
330
29436
100
AcDbEntity
  8
Pel_Muntin_AS
100
AcDbPolyline
 90
        4
 70
     1
 43
0.0
 10
37.375
 20
30.375
 10
31.938
 20
30.375
 10
31.938
 20
22.37567
 10
37.375
 20
22.37567
  0
LWPOLYLINE
  5
2943F
330
29436
100
AcDbEntity
  8
Pel_Muntin_AS
100
AcDbPolyline
 90
        4
 70
     1
 43
0.0
 10
31.062
 20
30.375
 10
25.625
 20
30.375
 10
25.625
 20
22.37567
 10
31.062
 20
22.37567
  0
LWPOLYLINE
  5
29440
330
29436
100
AcDbEntity
  8
Pel_Muntin_AS
100
AcDbPolyline
 90
        4
 70
     1
 43
0.0
 10
31.062
 20
21.49967
 10
25.625
 20
21.49967
 10
25.625
 20
13.50033
 10
31.062
 20
13.50033
  0
LWPOLYLINE
  5
29441
330
29436
100
AcDbEntity
  8
Pel_Muntin_AS
100
AcDbPolyline
 90
        4
 70
     1
 43
0.0
 10
37.375
 20
21.49967
 10
31.938
 20
21.49967
 10
31.938
 20
13.50033
 10
37.375
 20
13.50033
  0
LWPOLYLINE
  5
29442
330
29436
100
AcDbEntity
  8
Pel_Muntin_AS
100
AcDbPolyline
 90
        4
 70
     1
 43
0.0
 10
37.375
 20
12.62433
 10
31.938
 20
12.62433
 10
31.938
 20
4.625
 10
37.375
 20
4.625
  0
LWPOLYLINE
  5
29443
330
29436
100
AcDbEntity
  8
Pel_Muntin_AS
100
AcDbPolyline
 90
        4
 70
     1
 43
0.0
 10
31.062
 20
12.62433
 10
25.625
 20
12.62433
 10
25.625
 20
4.625
 10
31.062
 20
4.625
  0
LWPOLYLINE
  5
29444
330
29436
100
AcDbEntity
  8
Pel_Muntin_AS
100
AcDbPolyline
 90
        4
 70
     1
 43
0.0
 10
16.375
 20
12.62433
 10
10.938
 20
12.62433
 10
10.938
 20
4.625
 10
16.375
 20
4.625
  0
LWPOLYLINE
  5
29445
330
29436
100
AcDbEntity
  8
Pel_Muntin_AS
100
AcDbPolyline
 90
        4
 70
     1
 43
0.0
 10
10.062
 20
12.62433
 10
4.625
 20
12.62433
 10
4.625
 20
4.625
 10
10.062
 20
4.625
  0
LWPOLYLINE
  5
29446
330
29436
100
AcDbEntity
  8
Pel_Muntin_AS
100
AcDbPolyline
 90
        4
 70
     1
 43
0.0
 10
10.062
 20
21.49967
 10
4.625
 20
21.49967
 10
4.625
 20
13.50033
 10
10.062
 20
13.50033
  0
LWPOLYLINE
  5
29447
330
29436
100
AcDbEntity
  8
Pel_Muntin_AS
100
AcDbPolyline
 90
        4
 70
     1
 43
0.0
 10
16.375
 20
21.49967
 10
10.938
 20
21.49967
 10
10.938
 20
13.50033
 10
16.375
 20
13.50033
  0
LWPOLYLINE
  5
29448
330
29436
100
AcDbEntity
  8
Pel_Muntin_AS
100
AcDbPolyline
 90
        4
 70
     1
 43
0.0
 10
16.375
 20
30.375
 10
10.938
 20
30.375
 10
10.938
 20
22.37567
 10
16.375
 20
22.37567
  0
LWPOLYLINE
  5
29449
330
29436
100
AcDbEntity
  8
Pel_Muntin_AS
100
AcDbPolyline
 90
        4
 70
     1
 43
0.0
 10
10.062
 20
30.375
 10
4.625
 20
30.375
 10
4.625
 20
22.37567
 10
10.062
 20
22.37567
  0
ENDBLK
  5
2944D
330
29436
100
AcDbEntity
  8
0
100
AcDbBlockEnd
  0
BLOCK
  5
29465
330
2944F
100
AcDbEntity
  8
0
100
AcDbBlockBegin
  2
ASPCICM2-2147T
 70
     0
 10
0.0
 20
0.0
 30
0.0
  3
ASPCICM2-2147T
  1

  0
LWPOLYLINE
  5
29450
330
2944F
100
AcDbEntity
  8
Pel_Frame_Outside
100
AcDbPolyline
 90
        8
 70
     1
 43
0.0
 10
21.0
 20
0.0
 10
21.0
 20
47.0
 10
0.0
 20
47.0
 10
0.0
 20
0.0
 10
21.0
 20
0.0
 10
21.0
 20
47.0
 10
42.0
 20
47.0
 10
42.0
 20
0.0
  0
LWPOLYLINE
  5
29451
330
2944F
100
AcDbEntity
  8
Pel_Sash_Outside
100
AcDbPolyline
 90
        4
 70
     1
 43
0.0
 10
22.625
 20
1.625
 10
22.625
 20
45.375
 10
40.375
 20
45.375
 10
40.375
 20
1.625
  0
LWPOLYLINE
  5
29452
330
2944F
100
AcDbEntity
  8
Pel_Sash_Inside
100
AcDbPolyline
 90
        4
 70
     1
 43
0.0
 10
25.625
 20
4.625
 10
25.625
 20
42.37499999999999
 10
37.375
 20
42.37499999999999
 10
37.375
 20
4.625
  0
LWPOLYLINE
  5
29453
330
2944F
100
AcDbEntity
  8
Pel_Hinging
 48
6.0
100
AcDbPolyline
 90
        3
 70
     0
 43
0.0
 10
22.625
 20
1.625
 10
40.375
 20
23.5
 10
22.625
 20
45.375
  0
LWPOLYLINE
  5
29454
330
2944F
100
AcDbEntity
  8
Pel_Sash_Outside
100
AcDbPolyline
 90
        4
 70
     1
 43
0.0
 10
1.625
 20
45.375
 10
19.375
 20
45.375
 10
19.375
 20
1.625
 10
1.625
 20
1.625
  0
LWPOLYLINE
  5
29455
330
2944F
100
AcDbEntity
  8
Pel_Sash_Inside
100
AcDbPolyline
 90
        4
 70
     1
 43
0.0
 10
16.375
 20
42.37499999999999
 10
16.375
 20
4.625
 10
4.625
 20
4.625
 10
4.625
 20
42.37499999999999
  0
LWPOLYLINE
  5
29456
330
2944F
100
AcDbEntity
  8
Pel_Hinging
 48
6.0
100
AcDbPolyline
 90
        3
 70
     0
 43
0.0
 10
19.375
 20
1.625
 10
1.625
 20
23.5
 10
19.375
 20
45.375
  0
LWPOLYLINE
  5
29457
330
2944F
100
AcDbEntity
  8
Pel_Muntin_AS
100
AcDbPolyline
 90
        4
 70
     1
 43
0.0
 10
37.375
 20
42.37499999999999
 10
31.938
 20
42.37499999999999
 10
31.938
 20
30.37567
 10
37.375
 20
30.37567
  0
LWPOLYLINE
  5
29458
330
2944F
100
AcDbEntity
  8
Pel_Muntin_AS
100
AcDbPolyline
 90
        4
 70
     1
 43
0.0
 10
31.062
 20
42.37499999999999
 10
25.625
 20
42.37499999999999
 10
25.625
 20
30.37567
 10
31.062
 20
30.37567
  0
LWPOLYLINE
  5
29459
330
2944F
100
AcDbEntity
  8
Pel_Muntin_AS
100
AcDbPolyline
 90
        4
 70
     1
 43
0.0
 10
31.062
 20
29.49967
 10
25.625
 20
29.49967
 10
25.625
 20
17.50033
 10
31.062
 20
17.50033
  0
LWPOLYLINE
  5
2945A
330
2944F
100
AcDbEntity
  8
Pel_Muntin_AS
100
AcDbPolyline
 90
        4
 70
     1
 43
0.0
 10
37.375
 20
29.49967
 10
31.938
 20
29.49967
 10
31.938
 20
17.50033
 10
37.375
 20
17.50033
  0
LWPOLYLINE
  5
2945B
330
2944F
100
AcDbEntity
  8
Pel_Muntin_AS
100
AcDbPolyline
 90
        4
 70
     1
 43
0.0
 10
37.375
 20
16.62433
 10
31.938
 20
16.62433
 10
31.938
 20
4.625
 10
37.375
 20
4.625
  0
LWPOLYLINE
  5
2945C
330
2944F
100
AcDbEntity
  8
Pel_Muntin_AS
100
AcDbPolyline
 90
        4
 70
     1
 43
0.0
 10
31.062
 20
16.62433
 10
25.625
 20
16.62433
 10
25.625
 20
4.625
 10
31.062
 20
4.625
  0
LWPOLYLINE
  5
2945D
330
2944F
100
AcDbEntity
  8
Pel_Muntin_AS
100
AcDbPolyline
 90
        4
 70
     1
 43
0.0
 10
16.375
 20
16.62433
 10
10.938
 20
16.62433
 10
10.938
 20
4.625
 10
16.375
 20
4.625
  0
LWPOLYLINE
  5
2945E
330
2944F
100
AcDbEntity
  8
Pel_Muntin_AS
100
AcDbPolyline
 90
        4
 70
     1
 43
0.0
 10
10.062
 20
16.62433
 10
4.625
 20
16.62433
 10
4.625
 20
4.625
 10
10.062
 20
4.625
  0
LWPOLYLINE
  5
2945F
330
2944F
100
AcDbEntity
  8
Pel_Muntin_AS
100
AcDbPolyline
 90
        4
 70
     1
 43
0.0
 10
10.062
 20
29.49967
 10
4.625
 20
29.49967
 10
4.625
 20
17.50033
 10
10.062
 20
17.50033
  0
LWPOLYLINE
  5
29460
330
2944F
100
AcDbEntity
  8
Pel_Muntin_AS
100
AcDbPolyline
 90
        4
 70
     1
 43
0.0
 10
16.375
 20
29.49967
 10
10.938
 20
29.49967
 10
10.938
 20
17.50033
 10
16.375
 20
17.50033
  0
LWPOLYLINE
  5
29461
330
2944F
100
AcDbEntity
  8
Pel_Muntin_AS
100
AcDbPolyline
 90
        4
 70
     1
 43
0.0
 10
16.375
 20
42.37499999999999
 10
10.938
 20
42.37499999999999
 10
10.938
 20
30.37567
 10
16.375
 20
30.37567
  0
LWPOLYLINE
  5
29462
330
2944F
100
AcDbEntity
  8
Pel_Muntin_AS
100
AcDbPolyline
 90
        4
 70
     1
 43
0.0
 10
10.062
 20
42.37499999999999
 10
4.625
 20
42.37499999999999
 10
4.625
 20
30.37567
 10
10.062
 20
30.37567
  0
ENDBLK
  5
29466
330
2944F
100
AcDbEntity
  8
0
100
AcDbBlockEnd
  0
BLOCK
  5
29481
330
2946A
100
AcDbEntity
  8
0
100
AcDbBlockBegin
  2
ASPCICM2-2141T
 70
     0
 10
0.0
 20
0.0
 30
0.0
  3
ASPCICM2-2141T
  1

  0
LWPOLYLINE
  5
2946B
330
2946A
100
AcDbEntity
  8
Pel_Frame_Outside
100
AcDbPolyline
 90
        4
 70
     1
 43
0.0
 10
0.0
 20
0.0
 10
21.0
 20
0.0
 10
21.0
 20
41.0
 10
0.0
 20
41.0
  0
LWPOLYLINE
  5
2946C
330
2946A
100
AcDbEntity
  8
Pel_Sash_Outside
100
AcDbPolyline
 90
        4
 70
     1
 43
0.0
 10
1.625
 20
39.375
 10
19.375
 20
39.375
 10
19.375
 20
1.625
 10
1.625
 20
1.625
  0
LWPOLYLINE
  5
2946D
330
2946A
100
AcDbEntity
  8
Pel_Sash_Inside
100
AcDbPolyline
 90
        4
 70
     1
 43
0.0
 10
16.375
 20
36.375
 10
16.375
 20
4.625
 10
4.625
 20
4.625
 10
4.625
 20
36.375
  0
LWPOLYLINE
  5
2946E
330
2946A
100
AcDbEntity
  8
Pel_Hinging
 48
6.0
100
AcDbPolyline
 90
        3
 70
     0
 43
0.0
 10
19.375
 20
1.625
 10
1.625
 20
20.5
 10
19.375
 20
39.375
  0
LWPOLYLINE
  5
2946F
330
2946A
100
AcDbEntity
  8
Pel_Muntin_AS
100
AcDbPolyline
 90
        4
 70
     1
 43
0.0
 10
16.375
 20
14.62432999999996
 10
10.938
 20
14.62432999999996
 10
10.938
 20
4.625
 10
16.375
 20
4.625
  0
LWPOLYLINE
  5
29470
330
2946A
100
AcDbEntity
  8
Pel_Muntin_AS
100
AcDbPolyline
 90
        4
 70
     1
 43
0.0
 10
10.06199999999999
 20
14.62432999999996
 10
4.625
 20
14.62432999999996
 10
4.625
 20
4.625
 10
10.06199999999999
 20
4.625
  0
LWPOLYLINE
  5
29471
330
2946A
100
AcDbEntity
  8
Pel_Muntin_AS
100
AcDbPolyline
 90
        4
 70
     1
 43
0.0
 10
10.06199999999999
 20
25.49966999999997
 10
4.625
 20
25.49966999999997
 10
4.625
 20
15.50033
 10
10.06199999999999
 20
15.50033
  0
LWPOLYLINE
  5
29472
330
2946A
100
AcDbEntity
  8
Pel_Muntin_AS
100
AcDbPolyline
 90
        4
 70
     1
 43
0.0
 10
16.375
 20
25.49966999999997
 10
10.938
 20
25.49966999999997
 10
10.938
 20
15.50033
 10
16.375
 20
15.50033
  0
LWPOLYLINE
  5
29473
330
2946A
100
AcDbEntity
  8
Pel_Muntin_AS
100
AcDbPolyline
 90
        4
 70
     1
 43
0.0
 10
16.375
 20
36.375
 10
10.938
 20
36.375
 10
10.938
 20
26.37567
 10
16.375
 20
26.37567
  0
LWPOLYLINE
  5
29474
330
2946A
100
AcDbEntity
  8
Pel_Muntin_AS
100
AcDbPolyline
 90
        4
 70
     1
 43
0.0
 10
10.06199999999999
 20
36.375
 10
4.625
 20
36.375
 10
4.625
 20
26.37567
 10
10.06199999999999
 20
26.37567
  0
LWPOLYLINE
  5
29475
330
2946A
100
AcDbEntity
  8
Pel_Frame_Outside
100
AcDbPolyline
 90
        8
 70
     1
 43
0.0
 10
21.0
 20
0.0
 10
21.0
 20
41.0
 10
0.0
 20
41.0
 10
0.0
 20
0.0
 10
21.0
 20
0.0
 10
21.0
 20
41.0
 10
42.0
 20
41.0
 10
42.0
 20
0.0
  0
LWPOLYLINE
  5
29476
330
2946A
100
AcDbEntity
  8
Pel_Sash_Outside
100
AcDbPolyline
 90
        4
 70
     1
 43
0.0
 10
22.625
 20
39.375
 10
40.375
 20
39.375
 10
40.375
 20
1.625
 10
22.625
 20
1.625
  0
LWPOLYLINE
  5
29477
330
2946A
100
AcDbEntity
  8
Pel_Sash_Inside
100
AcDbPolyline
 90
        4
 70
     1
 43
0.0
 10
37.375
 20
36.375
 10
37.375
 20
4.625
 10
25.625
 20
4.625
 10
25.625
 20
36.375
  0
LWPOLYLINE
  5
29478
330
2946A
100
AcDbEntity
  8
Pel_Hinging
 48
6.0
100
AcDbPolyline
 90
        3
 70
     0
 43
0.0
 10
22.625
 20
1.625
 10
40.375
 20
20.5
 10
22.625
 20
39.375
  0
LWPOLYLINE
  5
29479
330
2946A
100
AcDbEntity
  8
Pel_Muntin_AS
100
AcDbPolyline
 90
        4
 70
     1
 43
0.0
 10
37.375
 20
14.62432999999996
 10
31.938
 20
14.62432999999996
 10
31.938
 20
4.625
 10
37.375
 20
4.625
  0
LWPOLYLINE
  5
2947A
330
2946A
100
AcDbEntity
  8
Pel_Muntin_AS
100
AcDbPolyline
 90
        4
 70
     1
 43
0.0
 10
31.06199999999999
 20
14.62432999999996
 10
25.625
 20
14.62432999999996
 10
25.625
 20
4.625
 10
31.06199999999999
 20
4.625
  0
LWPOLYLINE
  5
2947B
330
2946A
100
AcDbEntity
  8
Pel_Muntin_AS
100
AcDbPolyline
 90
        4
 70
     1
 43
0.0
 10
31.06199999999999
 20
25.49966999999997
 10
25.625
 20
25.49966999999997
 10
25.625
 20
15.50033
 10
31.06199999999999
 20
15.50033
  0
LWPOLYLINE
  5
2947C
330
2946A
100
AcDbEntity
  8
Pel_Muntin_AS
100
AcDbPolyline
 90
        4
 70
     1
 43
0.0
 10
37.375
 20
25.49966999999997
 10
31.938
 20
25.49966999999997
 10
31.938
 20
15.50033
 10
37.375
 20
15.50033
  0
LWPOLYLINE
  5
2947D
330
2946A
100
AcDbEntity
  8
Pel_Muntin_AS
100
AcDbPolyline
 90
        4
 70
     1
 43
0.0
 10
37.375
 20
36.375
 10
31.938
 20
36.375
 10
31.938
 20
26.37567
 10
37.375
 20
26.37567
  0
LWPOLYLINE
  5
2947E
330
2946A
100
AcDbEntity
  8
Pel_Muntin_AS
100
AcDbPolyline
 90
        4
 70
     1
 43
0.0
 10
31.06199999999999
 20
36.375
 10
25.625
 20
36.375
 10
25.625
 20
26.37567
 10
31.06199999999999
 20
26.37567
  0
ENDBLK
  5
29482
330
2946A
100
AcDbEntity
  8
0
100
AcDbBlockEnd
  0
BLOCK
  5
2949E
330
29484
100
AcDbEntity
  8
0
100
AcDbBlockBegin
  2
ASPCICM2-2153T
 70
     0
 10
0.0
 20
0.0
 30
0.0
  3
ASPCICM2-2153T
  1

  0
LWPOLYLINE
  5
29485
330
29484
100
AcDbEntity
  8
Pel_Frame_Outside
100
AcDbPolyline
 90
        8
 70
     1
 43
0.0
 10
21.0
 20
0.0
 10
21.0
 20
53.0
 10
0.0
 20
53.0
 10
0.0
 20
0.0
 10
21.0
 20
0.0
 10
21.0
 20
53.0
 10
42.0
 20
53.0
 10
42.0
 20
0.0
  0
LWPOLYLINE
  5
29486
330
29484
100
AcDbEntity
  8
Pel_Sash_Outside
100
AcDbPolyline
 90
        4
 70
     1
 43
0.0
 10
22.625
 20
1.625
 10
22.625
 20
51.375
 10
40.375
 20
51.375
 10
40.375
 20
1.625
  0
LWPOLYLINE
  5
29487
330
29484
100
AcDbEntity
  8
Pel_Sash_Inside
100
AcDbPolyline
 90
        4
 70
     1
 43
0.0
 10
25.625
 20
4.625
 10
25.625
 20
48.375
 10
37.375
 20
48.375
 10
37.375
 20
4.625
  0
LWPOLYLINE
  5
29488
330
29484
100
AcDbEntity
  8
Pel_Hinging
 48
6.0
100
AcDbPolyline
 90
        3
 70
     0
 43
0.0
 10
22.625
 20
1.625
 10
40.375
 20
26.5
 10
22.625
 20
51.375
  0
LWPOLYLINE
  5
29489
330
29484
100
AcDbEntity
  8
Pel_Sash_Outside
100
AcDbPolyline
 90
        4
 70
     1
 43
0.0
 10
1.625
 20
51.375
 10
19.375
 20
51.375
 10
19.375
 20
1.625
 10
1.625
 20
1.625
  0
LWPOLYLINE
  5
2948A
330
29484
100
AcDbEntity
  8
Pel_Sash_Inside
100
AcDbPolyline
 90
        4
 70
     1
 43
0.0
 10
16.375
 20
48.375
 10
16.375
 20
4.625
 10
4.625
 20
4.625
 10
4.625
 20
48.375
  0
LWPOLYLINE
  5
2948B
330
29484
100
AcDbEntity
  8
Pel_Hinging
 48
6.0
100
AcDbPolyline
 90
        3
 70
     0
 43
0.0
 10
19.375
 20
1.625
 10
1.625
 20
26.5
 10
19.375
 20
51.375
  0
LWPOLYLINE
  5
2948C
330
29484
100
AcDbEntity
  8
Pel_Muntin_AS
100
AcDbPolyline
 90
        4
 70
     1
 43
0.0
 10
37.375
 20
48.375
 10
31.938
 20
48.375
 10
31.938
 20
38.0945
 10
37.375
 20
38.0945
  0
LWPOLYLINE
  5
2948D
330
29484
100
AcDbEntity
  8
Pel_Muntin_AS
100
AcDbPolyline
 90
        4
 70
     1
 43
0.0
 10
31.062
 20
48.375
 10
25.625
 20
48.375
 10
25.625
 20
38.0945
 10
31.062
 20
38.0945
  0
LWPOLYLINE
  5
2948E
330
29484
100
AcDbEntity
  8
Pel_Muntin_AS
100
AcDbPolyline
 90
        4
 70
     1
 43
0.0
 10
31.062
 20
26.06200000000001
 10
25.625
 20
26.06200000000001
 10
25.625
 20
15.7815
 10
31.062
 20
15.7815
  0
LWPOLYLINE
  5
2948F
330
29484
100
AcDbEntity
  8
Pel_Muntin_AS
100
AcDbPolyline
 90
        4
 70
     1
 43
0.0
 10
37.375
 20
26.06200000000001
 10
31.938
 20
26.06200000000001
 10
31.938
 20
15.7815
 10
37.375
 20
15.7815
  0
LWPOLYLINE
  5
29490
330
29484
100
AcDbEntity
  8
Pel_Muntin_AS
100
AcDbPolyline
 90
        4
 70
     1
 43
0.0
 10
37.375
 20
14.9055
 10
31.938
 20
14.9055
 10
31.938
 20
4.625
 10
37.375
 20
4.625
  0
LWPOLYLINE
  5
29491
330
29484
100
AcDbEntity
  8
Pel_Muntin_AS
100
AcDbPolyline
 90
        4
 70
     1
 43
0.0
 10
31.062
 20
14.9055
 10
25.625
 20
14.9055
 10
25.625
 20
4.625
 10
31.062
 20
4.625
  0
LWPOLYLINE
  5
29492
330
29484
100
AcDbEntity
  8
Pel_Muntin_AS
100
AcDbPolyline
 90
        4
 70
     1
 43
0.0
 10
16.375
 20
14.9055
 10
10.938
 20
14.9055
 10
10.938
 20
4.625
 10
16.375
 20
4.625
  0
LWPOLYLINE
  5
29493
330
29484
100
AcDbEntity
  8
Pel_Muntin_AS
100
AcDbPolyline
 90
        4
 70
     1
 43
0.0
 10
10.062
 20
14.9055
 10
4.625
 20
14.9055
 10
4.625
 20
4.625
 10
10.062
 20
4.625
  0
LWPOLYLINE
  5
29494
330
29484
100
AcDbEntity
  8
Pel_Muntin_AS
100
AcDbPolyline
 90
        4
 70
     1
 43
0.0
 10
10.062
 20
26.06200000000001
 10
4.625
 20
26.06200000000001
 10
4.625
 20
15.7815
 10
10.062
 20
15.7815
  0
LWPOLYLINE
  5
29495
330
29484
100
AcDbEntity
  8
Pel_Muntin_AS
100
AcDbPolyline
 90
        4
 70
     1
 43
0.0
 10
16.375
 20
26.06200000000001
 10
10.938
 20
26.06200000000001
 10
10.938
 20
15.7815
 10
16.375
 20
15.7815
  0
LWPOLYLINE
  5
29496
330
29484
100
AcDbEntity
  8
Pel_Muntin_AS
100
AcDbPolyline
 90
        4
 70
     1
 43
0.0
 10
16.375
 20
48.375
 10
10.938
 20
48.375
 10
10.938
 20
38.0945
 10
16.375
 20
38.0945
  0
LWPOLYLINE
  5
29497
330
29484
100
AcDbEntity
  8
Pel_Muntin_AS
100
AcDbPolyline
 90
        4
 70
     1
 43
0.0
 10
10.062
 20
48.375
 10
4.625
 20
48.375
 10
4.625
 20
38.0945
 10
10.062
 20
38.0945
  0
LWPOLYLINE
  5
29498
330
29484
100
AcDbEntity
  8
Pel_Muntin_AS
100
AcDbPolyline
 90
        4
 70
     1
 43
0.0
 10
31.062
 20
37.2185
 10
25.625
 20
37.2185
 10
25.625
 20
26.938
 10
31.062
 20
26.938
  0
LWPOLYLINE
  5
29499
330
29484
100
AcDbEntity
  8
Pel_Muntin_AS
100
AcDbPolyline
 90
        4
 70
     1
 43
0.0
 10
37.375
 20
37.2185
 10
31.938
 20
37.2185
 10
31.938
 20
26.938
 10
37.375
 20
26.938
  0
LWPOLYLINE
  5
2949A
330
29484
100
AcDbEntity
  8
Pel_Muntin_AS
100
AcDbPolyline
 90
        4
 70
     1
 43
0.0
 10
10.062
 20
37.2185
 10
4.625
 20
37.2185
 10
4.625
 20
26.938
 10
10.062
 20
26.938
  0
LWPOLYLINE
  5
2949B
330
29484
100
AcDbEntity
  8
Pel_Muntin_AS
100
AcDbPolyline
 90
        4
 70
     1
 43
0.0
 10
16.375
 20
37.2185
 10
10.938
 20
37.2185
 10
10.938
 20
26.938
 10
16.375
 20
26.938
  0
ENDBLK
  5
2949F
330
29484
100
AcDbEntity
  8
0
100
AcDbBlockEnd
  0
BLOCK
  5
294BB
330
294A1
100
AcDbEntity
  8
0
100
AcDbBlockBegin
  2
ASPCICM2-2159T
 70
     0
 10
0.0
 20
0.0
 30
0.0
  3
ASPCICM2-2159T
  1

  0
LWPOLYLINE
  5
294A2
330
294A1
100
AcDbEntity
  8
Pel_Frame_Outside
100
AcDbPolyline
 90
        8
 70
     1
 43
0.0
 10
21.0
 20
0.0
 10
21.0
 20
59.0
 10
0.0
 20
59.0
 10
0.0
 20
0.0
 10
21.0
 20
0.0
 10
21.0
 20
59.0
 10
42.0
 20
59.0
 10
42.0
 20
0.0
  0
LWPOLYLINE
  5
294A3
330
294A1
100
AcDbEntity
  8
Pel_Sash_Outside
100
AcDbPolyline
 90
        4
 70
     1
 43
0.0
 10
22.625
 20
1.625
 10
22.625
 20
57.375
 10
40.375
 20
57.375
 10
40.375
 20
1.625
  0
LWPOLYLINE
  5
294A4
330
294A1
100
AcDbEntity
  8
Pel_Sash_Inside
100
AcDbPolyline
 90
        4
 70
     1
 43
0.0
 10
25.625
 20
4.625
 10
25.625
 20
54.375
 10
37.375
 20
54.375
 10
37.375
 20
4.625
  0
LWPOLYLINE
  5
294A5
330
294A1
100
AcDbEntity
  8
Pel_Hinging
 48
6.0
100
AcDbPolyline
 90
        3
 70
     0
 43
0.0
 10
22.625
 20
1.625
 10
40.375
 20
29.5
 10
22.625
 20
57.375
  0
LWPOLYLINE
  5
294A6
330
294A1
100
AcDbEntity
  8
Pel_Sash_Outside
100
AcDbPolyline
 90
        4
 70
     1
 43
0.0
 10
1.625
 20
57.375
 10
19.375
 20
57.375
 10
19.375
 20
1.625
 10
1.625
 20
1.625
  0
LWPOLYLINE
  5
294A7
330
294A1
100
AcDbEntity
  8
Pel_Sash_Inside
100
AcDbPolyline
 90
        4
 70
     1
 43
0.0
 10
16.375
 20
54.375
 10
16.375
 20
4.625
 10
4.625
 20
4.625
 10
4.625
 20
54.375
  0
LWPOLYLINE
  5
294A8
330
294A1
100
AcDbEntity
  8
Pel_Hinging
 48
6.0
100
AcDbPolyline
 90
        3
 70
     0
 43
0.0
 10
19.375
 20
1.625
 10
1.625
 20
29.5
 10
19.375
 20
57.375
  0
LWPOLYLINE
  5
294A9
330
294A1
100
AcDbEntity
  8
Pel_Muntin_AS
100
AcDbPolyline
 90
        4
 70
     1
 43
0.0
 10
37.375
 20
54.375
 10
31.938
 20
54.375
 10
31.938
 20
42.5945
 10
37.375
 20
42.5945
  0
LWPOLYLINE
  5
294AA
330
294A1
100
AcDbEntity
  8
Pel_Muntin_AS
100
AcDbPolyline
 90
        4
 70
     1
 43
0.0
 10
31.062
 20
54.375
 10
25.625
 20
54.375
 10
25.625
 20
42.5945
 10
31.062
 20
42.5945
  0
LWPOLYLINE
  5
294AB
330
294A1
100
AcDbEntity
  8
Pel_Muntin_AS
100
AcDbPolyline
 90
        4
 70
     1
 43
0.0
 10
31.062
 20
29.06200000000001
 10
25.625
 20
29.06200000000001
 10
25.625
 20
17.2815
 10
31.062
 20
17.2815
  0
LWPOLYLINE
  5
294AC
330
294A1
100
AcDbEntity
  8
Pel_Muntin_AS
100
AcDbPolyline
 90
        4
 70
     1
 43
0.0
 10
37.375
 20
29.06200000000001
 10
31.938
 20
29.06200000000001
 10
31.938
 20
17.2815
 10
37.375
 20
17.2815
  0
LWPOLYLINE
  5
294AD
330
294A1
100
AcDbEntity
  8
Pel_Muntin_AS
100
AcDbPolyline
 90
        4
 70
     1
 43
0.0
 10
37.375
 20
16.40549999999999
 10
31.938
 20
16.40549999999999
 10
31.938
 20
4.625
 10
37.375
 20
4.625
  0
LWPOLYLINE
  5
294AE
330
294A1
100
AcDbEntity
  8
Pel_Muntin_AS
100
AcDbPolyline
 90
        4
 70
     1
 43
0.0
 10
31.062
 20
16.40549999999999
 10
25.625
 20
16.40549999999999
 10
25.625
 20
4.625
 10
31.062
 20
4.625
  0
LWPOLYLINE
  5
294AF
330
294A1
100
AcDbEntity
  8
Pel_Muntin_AS
100
AcDbPolyline
 90
        4
 70
     1
 43
0.0
 10
16.375
 20
16.40549999999999
 10
10.938
 20
16.40549999999999
 10
10.938
 20
4.625
 10
16.375
 20
4.625
  0
LWPOLYLINE
  5
294B0
330
294A1
100
AcDbEntity
  8
Pel_Muntin_AS
100
AcDbPolyline
 90
        4
 70
     1
 43
0.0
 10
10.06199999999999
 20
16.40549999999999
 10
4.625
 20
16.40549999999999
 10
4.625
 20
4.625
 10
10.06199999999999
 20
4.625
  0
LWPOLYLINE
  5
294B1
330
294A1
100
AcDbEntity
  8
Pel_Muntin_AS
100
AcDbPolyline
 90
        4
 70
     1
 43
0.0
 10
10.06199999999999
 20
29.06200000000001
 10
4.625
 20
29.06200000000001
 10
4.625
 20
17.2815
 10
10.06199999999999
 20
17.2815
  0
LWPOLYLINE
  5
294B2
330
294A1
100
AcDbEntity
  8
Pel_Muntin_AS
100
AcDbPolyline
 90
        4
 70
     1
 43
0.0
 10
16.375
 20
29.06200000000001
 10
10.938
 20
29.06200000000001
 10
10.938
 20
17.2815
 10
16.375
 20
17.2815
  0
LWPOLYLINE
  5
294B3
330
294A1
100
AcDbEntity
  8
Pel_Muntin_AS
100
AcDbPolyline
 90
        4
 70
     1
 43
0.0
 10
16.375
 20
54.375
 10
10.938
 20
54.375
 10
10.938
 20
42.5945
 10
16.375
 20
42.5945
  0
LWPOLYLINE
  5
294B4
330
294A1
100
AcDbEntity
  8
Pel_Muntin_AS
100
AcDbPolyline
 90
        4
 70
     1
 43
0.0
 10
10.06199999999999
 20
54.375
 10
4.625
 20
54.375
 10
4.625
 20
42.5945
 10
10.06199999999999
 20
42.5945
  0
LWPOLYLINE
  5
294B5
330
294A1
100
AcDbEntity
  8
Pel_Muntin_AS
100
AcDbPolyline
 90
        4
 70
     1
 43
0.0
 10
31.062
 20
41.7185
 10
25.625
 20
41.7185
 10
25.625
 20
29.938
 10
31.062
 20
29.938
  0
LWPOLYLINE
  5
294B6
330
294A1
100
AcDbEntity
  8
Pel_Muntin_AS
100
AcDbPolyline
 90
        4
 70
     1
 43
0.0
 10
37.375
 20
41.7185
 10
31.938
 20
41.7185
 10
31.938
 20
29.938
 10
37.375
 20
29.938
  0
LWPOLYLINE
  5
294B7
330
294A1
100
AcDbEntity
  8
Pel_Muntin_AS
100
AcDbPolyline
 90
        4
 70
     1
 43
0.0
 10
10.06199999999999
 20
41.7185
 10
4.625
 20
41.7185
 10
4.625
 20
29.938
 10
10.06199999999999
 20
29.938
  0
LWPOLYLINE
  5
294B8
330
294A1
100
AcDbEntity
  8
Pel_Muntin_AS
100
AcDbPolyline
 90
        4
 70
     1
 43
0.0
 10
16.375
 20
41.7185
 10
10.938
 20
41.7185
 10
10.938
 20
29.938
 10
16.375
 20
29.938
  0
ENDBLK
  5
294BC
330
294A1
100
AcDbEntity
  8
0
100
AcDbBlockEnd
  0
BLOCK
  5
294DC
330
294BE
100
AcDbEntity
  8
0
100
AcDbBlockBegin
  2
ASPCICM2-2165T
 70
     0
 10
0.0
 20
0.0
 30
0.0
  3
ASPCICM2-2165T
  1

  0
LWPOLYLINE
  5
294BF
330
294BE
100
AcDbEntity
  8
Pel_Frame_Outside
100
AcDbPolyline
 90
        8
 70
     1
 43
0.0
 10
21.0
 20
0.0
 10
21.0
 20
65.0
 10
0.0
 20
65.0
 10
0.0
 20
0.0
 10
21.0
 20
0.0
 10
21.0
 20
65.0
 10
42.0
 20
65.0
 10
42.0
 20
0.0
  0
LWPOLYLINE
  5
294C0
330
294BE
100
AcDbEntity
  8
Pel_Sash_Outside
100
AcDbPolyline
 90
        4
 70
     1
 43
0.0
 10
22.625
 20
1.625
 10
22.625
 20
63.375
 10
40.375
 20
63.375
 10
40.375
 20
1.625
  0
LWPOLYLINE
  5
294C1
330
294BE
100
AcDbEntity
  8
Pel_Sash_Inside
100
AcDbPolyline
 90
        4
 70
     1
 43
0.0
 10
25.625
 20
4.625
 10
25.625
 20
60.375
 10
37.375
 20
60.375
 10
37.375
 20
4.625
  0
LWPOLYLINE
  5
294C2
330
294BE
100
AcDbEntity
  8
Pel_Hinging
 48
6.0
100
AcDbPolyline
 90
        3
 70
     0
 43
0.0
 10
22.625
 20
1.625
 10
40.375
 20
32.5
 10
22.625
 20
63.375
  0
LWPOLYLINE
  5
294C3
330
294BE
100
AcDbEntity
  8
Pel_Sash_Outside
100
AcDbPolyline
 90
        4
 70
     1
 43
0.0
 10
1.625
 20
63.375
 10
19.375
 20
63.375
 10
19.375
 20
1.625
 10
1.625
 20
1.625
  0
LWPOLYLINE
  5
294C4
330
294BE
100
AcDbEntity
  8
Pel_Sash_Inside
100
AcDbPolyline
 90
        4
 70
     1
 43
0.0
 10
16.375
 20
60.375
 10
16.375
 20
4.625
 10
4.625
 20
4.625
 10
4.625
 20
60.375
  0
LWPOLYLINE
  5
294C5
330
294BE
100
AcDbEntity
  8
Pel_Hinging
 48
6.0
100
AcDbPolyline
 90
        3
 70
     0
 43
0.0
 10
19.375
 20
1.625
 10
1.625
 20
32.5
 10
19.375
 20
63.375
  0
LWPOLYLINE
  5
294C6
330
294BE
100
AcDbEntity
  8
Pel_Muntin_AS
100
AcDbPolyline
 90
        4
 70
     1
 43
0.0
 10
37.375
 20
60.375
 10
31.938
 20
60.375
 10
31.938
 20
49.9258
 10
37.375
 20
49.9258
  0
LWPOLYLINE
  5
294C7
330
294BE
100
AcDbEntity
  8
Pel_Muntin_AS
100
AcDbPolyline
 90
        4
 70
     1
 43
0.0
 10
31.062
 20
60.375
 10
25.625
 20
60.375
 10
25.625
 20
49.9258
 10
31.062
 20
49.9258
  0
LWPOLYLINE
  5
294C8
330
294BE
100
AcDbEntity
  8
Pel_Muntin_AS
100
AcDbPolyline
 90
        4
 70
     1
 43
0.0
 10
37.375
 20
15.0742
 10
31.938
 20
15.0742
 10
31.938
 20
4.625
 10
37.375
 20
4.625
  0
LWPOLYLINE
  5
294C9
330
294BE
100
AcDbEntity
  8
Pel_Muntin_AS
100
AcDbPolyline
 90
        4
 70
     1
 43
0.0
 10
31.062
 20
15.0742
 10
25.625
 20
15.0742
 10
25.625
 20
4.625
 10
31.062
 20
4.625
  0
LWPOLYLINE
  5
294CA
330
294BE
100
AcDbEntity
  8
Pel_Muntin_AS
100
AcDbPolyline
 90
        4
 70
     1
 43
0.0
 10
16.375
 20
15.0742
 10
10.938
 20
15.0742
 10
10.938
 20
4.625
 10
16.375
 20
4.625
  0
LWPOLYLINE
  5
294CB
330
294BE
100
AcDbEntity
  8
Pel_Muntin_AS
100
AcDbPolyline
 90
        4
 70
     1
 43
0.0
 10
10.06199999999999
 20
15.0742
 10
4.625
 20
15.0742
 10
4.625
 20
4.625
 10
10.06199999999999
 20
4.625
  0
LWPOLYLINE
  5
294CC
330
294BE
100
AcDbEntity
  8
Pel_Muntin_AS
100
AcDbPolyline
 90
        4
 70
     1
 43
0.0
 10
16.375
 20
60.375
 10
10.938
 20
60.375
 10
10.938
 20
49.9258
 10
16.375
 20
49.9258
  0
LWPOLYLINE
  5
294CD
330
294BE
100
AcDbEntity
  8
Pel_Muntin_AS
100
AcDbPolyline
 90
        4
 70
     1
 43
0.0
 10
10.06199999999999
 20
60.375
 10
4.625
 20
60.375
 10
4.625
 20
49.9258
 10
10.06199999999999
 20
49.9258
  0
LWPOLYLINE
  5
294CE
330
294BE
100
AcDbEntity
  8
Pel_Muntin_AS
100
AcDbPolyline
 90
        4
 70
     1
 43
0.0
 10
31.062
 20
26.3994
 10
25.625
 20
26.3994
 10
25.625
 20
15.9502
 10
31.062
 20
15.9502
  0
LWPOLYLINE
  5
294CF
330
294BE
100
AcDbEntity
  8
Pel_Muntin_AS
100
AcDbPolyline
 90
        4
 70
     1
 43
0.0
 10
37.375
 20
26.3994
 10
31.938
 20
26.3994
 10
31.938
 20
15.9502
 10
37.375
 20
15.9502
  0
LWPOLYLINE
  5
294D0
330
294BE
100
AcDbEntity
  8
Pel_Muntin_AS
100
AcDbPolyline
 90
        4
 70
     1
 43
0.0
 10
10.06199999999999
 20
26.3994
 10
4.625
 20
26.3994
 10
4.625
 20
15.9502
 10
10.06199999999999
 20
15.9502
  0
LWPOLYLINE
  5
294D1
330
294BE
100
AcDbEntity
  8
Pel_Muntin_AS
100
AcDbPolyline
 90
        4
 70
     1
 43
0.0
 10
16.375
 20
26.3994
 10
10.938
 20
26.3994
 10
10.938
 20
15.9502
 10
16.375
 20
15.9502
  0
LWPOLYLINE
  5
294D2
330
294BE
100
AcDbEntity
  8
Pel_Muntin_AS
100
AcDbPolyline
 90
        4
 70
     1
 43
0.0
 10
31.062
 20
37.7246
 10
25.625
 20
37.7246
 10
25.625
 20
27.2754
 10
31.062
 20
27.2754
  0
LWPOLYLINE
  5
294D3
330
294BE
100
AcDbEntity
  8
Pel_Muntin_AS
100
AcDbPolyline
 90
        4
 70
     1
 43
0.0
 10
37.375
 20
37.7246
 10
31.938
 20
37.7246
 10
31.938
 20
27.2754
 10
37.375
 20
27.2754
  0
LWPOLYLINE
  5
294D4
330
294BE
100
AcDbEntity
  8
Pel_Muntin_AS
100
AcDbPolyline
 90
        4
 70
     1
 43
0.0
 10
10.06199999999999
 20
37.7246
 10
4.625
 20
37.7246
 10
4.625
 20
27.2754
 10
10.06199999999999
 20
27.2754
  0
LWPOLYLINE
  5
294D5
330
294BE
100
AcDbEntity
  8
Pel_Muntin_AS
100
AcDbPolyline
 90
        4
 70
     1
 43
0.0
 10
16.375
 20
37.7246
 10
10.938
 20
37.7246
 10
10.938
 20
27.2754
 10
16.375
 20
27.2754
  0
LWPOLYLINE
  5
294D6
330
294BE
100
AcDbEntity
  8
Pel_Muntin_AS
100
AcDbPolyline
 90
        4
 70
     1
 43
0.0
 10
31.062
 20
49.04980000000001
 10
25.625
 20
49.04980000000001
 10
25.625
 20
38.6006
 10
31.062
 20
38.6006
  0
LWPOLYLINE
  5
294D7
330
294BE
100
AcDbEntity
  8
Pel_Muntin_AS
100
AcDbPolyline
 90
        4
 70
     1
 43
0.0
 10
37.375
 20
49.04980000000001
 10
31.938
 20
49.04980000000001
 10
31.938
 20
38.6006
 10
37.375
 20
38.6006
  0
LWPOLYLINE
  5
294D8
330
294BE
100
AcDbEntity
  8
Pel_Muntin_AS
100
AcDbPolyline
 90
        4
 70
     1
 43
0.0
 10
10.06199999999999
 20
49.04980000000001
 10
4.625
 20
49.04980000000001
 10
4.625
 20
38.6006
 10
10.06199999999999
 20
38.6006
  0
LWPOLYLINE
  5
294D9
330
294BE
100
AcDbEntity
  8
Pel_Muntin_AS
100
AcDbPolyline
 90
        4
 70
     1
 43
0.0
 10
16.375
 20
49.04980000000001
 10
10.938
 20
49.04980000000001
 10
10.938
 20
38.6006
 10
16.375
 20
38.6006
  0
ENDBLK
  5
294DD
330
294BE
100
AcDbEntity
  8
0
100
AcDbBlockEnd
  0
BLOCK
  5
294F5
330
294DF
100
AcDbEntity
  8
0
100
AcDbBlockBegin
  2
ASPCICM2-2341T
 70
     0
 10
0.0
 20
0.0
 30
0.0
  3
ASPCICM2-2341T
  1

  0
LWPOLYLINE
  5
294E0
330
294DF
100
AcDbEntity
  8
Pel_Frame_Outside
100
AcDbPolyline
 90
        8
 70
     1
 43
0.0
 10
23.0
 20
0.0
 10
23.0
 20
41.0
 10
0.0
 20
41.0
 10
0.0
 20
0.0
 10
23.0
 20
0.0
 10
23.0
 20
41.0
 10
46.0
 20
41.0
 10
46.0
 20
0.0
  0
LWPOLYLINE
  5
294E1
330
294DF
100
AcDbEntity
  8
Pel_Sash_Outside
100
AcDbPolyline
 90
        4
 70
     1
 43
0.0
 10
24.625
 20
1.625
 10
24.625
 20
39.375
 10
44.375
 20
39.375
 10
44.375
 20
1.625
  0
LWPOLYLINE
  5
294E2
330
294DF
100
AcDbEntity
  8
Pel_Sash_Inside
100
AcDbPolyline
 90
        4
 70
     1
 43
0.0
 10
27.625
 20
4.625
 10
27.625
 20
36.375
 10
41.375
 20
36.375
 10
41.375
 20
4.625
  0
LWPOLYLINE
  5
294E3
330
294DF
100
AcDbEntity
  8
Pel_Hinging
 48
6.0
100
AcDbPolyline
 90
        3
 70
     0
 43
0.0
 10
24.625
 20
1.625
 10
44.375
 20
20.5
 10
24.625
 20
39.375
  0
LWPOLYLINE
  5
294E4
330
294DF
100
AcDbEntity
  8
Pel_Sash_Outside
100
AcDbPolyline
 90
        4
 70
     1
 43
0.0
 10
1.625
 20
39.375
 10
21.375
 20
39.375
 10
21.375
 20
1.625
 10
1.625
 20
1.625
  0
LWPOLYLINE
  5
294E5
330
294DF
100
AcDbEntity
  8
Pel_Sash_Inside
100
AcDbPolyline
 90
        4
 70
     1
 43
0.0
 10
18.375
 20
36.375
 10
18.375
 20
4.625
 10
4.625
 20
4.625
 10
4.625
 20
36.375
  0
LWPOLYLINE
  5
294E6
330
294DF
100
AcDbEntity
  8
Pel_Hinging
 48
6.0
100
AcDbPolyline
 90
        3
 70
     0
 43
0.0
 10
21.375
 20
1.625
 10
1.625
 20
20.5
 10
21.375
 20
39.375
  0
LWPOLYLINE
  5
294E7
330
294DF
100
AcDbEntity
  8
Pel_Muntin_AS
100
AcDbPolyline
 90
        4
 70
     1
 43
0.0
 10
41.375
 20
36.375
 10
34.938
 20
36.375
 10
34.938
 20
26.37567
 10
41.375
 20
26.37567
  0
LWPOLYLINE
  5
294E8
330
294DF
100
AcDbEntity
  8
Pel_Muntin_AS
100
AcDbPolyline
 90
        4
 70
     1
 43
0.0
 10
34.062
 20
36.375
 10
27.625
 20
36.375
 10
27.625
 20
26.37567
 10
34.062
 20
26.37567
  0
LWPOLYLINE
  5
294E9
330
294DF
100
AcDbEntity
  8
Pel_Muntin_AS
100
AcDbPolyline
 90
        4
 70
     1
 43
0.0
 10
34.062
 20
25.49966999999997
 10
27.625
 20
25.49966999999997
 10
27.625
 20
15.50033
 10
34.062
 20
15.50033
  0
LWPOLYLINE
  5
294EA
330
294DF
100
AcDbEntity
  8
Pel_Muntin_AS
100
AcDbPolyline
 90
        4
 70
     1
 43
0.0
 10
41.375
 20
25.49966999999997
 10
34.938
 20
25.49966999999997
 10
34.938
 20
15.50033
 10
41.375
 20
15.50033
  0
LWPOLYLINE
  5
294EB
330
294DF
100
AcDbEntity
  8
Pel_Muntin_AS
100
AcDbPolyline
 90
        4
 70
     1
 43
0.0
 10
41.375
 20
14.62432999999997
 10
34.938
 20
14.62432999999997
 10
34.938
 20
4.625
 10
41.375
 20
4.625
  0
LWPOLYLINE
  5
294EC
330
294DF
100
AcDbEntity
  8
Pel_Muntin_AS
100
AcDbPolyline
 90
        4
 70
     1
 43
0.0
 10
34.062
 20
14.62432999999997
 10
27.625
 20
14.62432999999997
 10
27.625
 20
4.625
 10
34.062
 20
4.625
  0
LWPOLYLINE
  5
294ED
330
294DF
100
AcDbEntity
  8
Pel_Muntin_AS
100
AcDbPolyline
 90
        4
 70
     1
 43
0.0
 10
18.375
 20
14.62432999999997
 10
11.938
 20
14.62432999999997
 10
11.938
 20
4.625
 10
18.375
 20
4.625
  0
LWPOLYLINE
  5
294EE
330
294DF
100
AcDbEntity
  8
Pel_Muntin_AS
100
AcDbPolyline
 90
        4
 70
     1
 43
0.0
 10
11.062
 20
14.62432999999997
 10
4.625
 20
14.62432999999997
 10
4.625
 20
4.625
 10
11.062
 20
4.625
  0
LWPOLYLINE
  5
294EF
330
294DF
100
AcDbEntity
  8
Pel_Muntin_AS
100
AcDbPolyline
 90
        4
 70
     1
 43
0.0
 10
11.062
 20
25.49966999999997
 10
4.625
 20
25.49966999999997
 10
4.625
 20
15.50033
 10
11.062
 20
15.50033
  0
LWPOLYLINE
  5
294F0
330
294DF
100
AcDbEntity
  8
Pel_Muntin_AS
100
AcDbPolyline
 90
        4
 70
     1
 43
0.0
 10
18.375
 20
25.49966999999997
 10
11.938
 20
25.49966999999997
 10
11.938
 20
15.50033
 10
18.375
 20
15.50033
  0
LWPOLYLINE
  5
294F1
330
294DF
100
AcDbEntity
  8
Pel_Muntin_AS
100
AcDbPolyline
 90
        4
 70
     1
 43
0.0
 10
18.375
 20
36.375
 10
11.938
 20
36.375
 10
11.938
 20
26.37567
 10
18.375
 20
26.37567
  0
LWPOLYLINE
  5
294F2
330
294DF
100
AcDbEntity
  8
Pel_Muntin_AS
100
AcDbPolyline
 90
        4
 70
     1
 43
0.0
 10
11.062
 20
36.375
 10
4.625
 20
36.375
 10
4.625
 20
26.37567
 10
11.062
 20
26.37567
  0
ENDBLK
  5
294F6
330
294DF
100
AcDbEntity
  8
0
100
AcDbBlockEnd
  0
BLOCK
  5
2950E
330
294F8
100
AcDbEntity
  8
0
100
AcDbBlockBegin
  2
ASPCICM2-2347T
 70
     0
 10
0.0
 20
0.0
 30
0.0
  3
ASPCICM2-2347T
  1

  0
LWPOLYLINE
  5
294F9
330
294F8
100
AcDbEntity
  8
Pel_Frame_Outside
100
AcDbPolyline
 90
        8
 70
     1
 43
0.0
 10
23.0
 20
0.0
 10
23.0
 20
47.0
 10
0.0
 20
47.0
 10
0.0
 20
0.0
 10
23.0
 20
0.0
 10
23.0
 20
47.0
 10
46.0
 20
47.0
 10
46.0
 20
0.0
  0
LWPOLYLINE
  5
294FA
330
294F8
100
AcDbEntity
  8
Pel_Sash_Outside
100
AcDbPolyline
 90
        4
 70
     1
 43
0.0
 10
24.625
 20
1.625
 10
24.625
 20
45.375
 10
44.375
 20
45.375
 10
44.375
 20
1.625
  0
LWPOLYLINE
  5
294FB
330
294F8
100
AcDbEntity
  8
Pel_Sash_Inside
100
AcDbPolyline
 90
        4
 70
     1
 43
0.0
 10
27.625
 20
4.625
 10
27.625
 20
42.37499999999999
 10
41.375
 20
42.37499999999999
 10
41.375
 20
4.625
  0
LWPOLYLINE
  5
294FC
330
294F8
100
AcDbEntity
  8
Pel_Hinging
 48
6.0
100
AcDbPolyline
 90
        3
 70
     0
 43
0.0
 10
24.625
 20
1.625
 10
44.375
 20
23.5
 10
24.625
 20
45.375
  0
LWPOLYLINE
  5
294FD
330
294F8
100
AcDbEntity
  8
Pel_Sash_Outside
100
AcDbPolyline
 90
        4
 70
     1
 43
0.0
 10
1.625
 20
45.375
 10
21.375
 20
45.375
 10
21.375
 20
1.625
 10
1.625
 20
1.625
  0
LWPOLYLINE
  5
294FE
330
294F8
100
AcDbEntity
  8
Pel_Sash_Inside
100
AcDbPolyline
 90
        4
 70
     1
 43
0.0
 10
18.375
 20
42.37499999999999
 10
18.375
 20
4.625
 10
4.625
 20
4.625
 10
4.625
 20
42.37499999999999
  0
LWPOLYLINE
  5
294FF
330
294F8
100
AcDbEntity
  8
Pel_Hinging
 48
6.0
100
AcDbPolyline
 90
        3
 70
     0
 43
0.0
 10
21.375
 20
1.625
 10
1.625
 20
23.5
 10
21.375
 20
45.375
  0
LWPOLYLINE
  5
29500
330
294F8
100
AcDbEntity
  8
Pel_Muntin_AS
100
AcDbPolyline
 90
        4
 70
     1
 43
0.0
 10
41.375
 20
42.37499999999999
 10
34.938
 20
42.37499999999999
 10
34.938
 20
30.37567
 10
41.375
 20
30.37567
  0
LWPOLYLINE
  5
29501
330
294F8
100
AcDbEntity
  8
Pel_Muntin_AS
100
AcDbPolyline
 90
        4
 70
     1
 43
0.0
 10
34.062
 20
42.37499999999999
 10
27.625
 20
42.37499999999999
 10
27.625
 20
30.37567
 10
34.062
 20
30.37567
  0
LWPOLYLINE
  5
29502
330
294F8
100
AcDbEntity
  8
Pel_Muntin_AS
100
AcDbPolyline
 90
        4
 70
     1
 43
0.0
 10
34.062
 20
29.49966999999997
 10
27.625
 20
29.49966999999997
 10
27.625
 20
17.50033
 10
34.062
 20
17.50033
  0
LWPOLYLINE
  5
29503
330
294F8
100
AcDbEntity
  8
Pel_Muntin_AS
100
AcDbPolyline
 90
        4
 70
     1
 43
0.0
 10
41.375
 20
29.49966999999997
 10
34.938
 20
29.49966999999997
 10
34.938
 20
17.50033
 10
41.375
 20
17.50033
  0
LWPOLYLINE
  5
29504
330
294F8
100
AcDbEntity
  8
Pel_Muntin_AS
100
AcDbPolyline
 90
        4
 70
     1
 43
0.0
 10
41.375
 20
16.62432999999997
 10
34.938
 20
16.62432999999997
 10
34.938
 20
4.625
 10
41.375
 20
4.625
  0
LWPOLYLINE
  5
29505
330
294F8
100
AcDbEntity
  8
Pel_Muntin_AS
100
AcDbPolyline
 90
        4
 70
     1
 43
0.0
 10
34.062
 20
16.62432999999997
 10
27.625
 20
16.62432999999997
 10
27.625
 20
4.625
 10
34.062
 20
4.625
  0
LWPOLYLINE
  5
29506
330
294F8
100
AcDbEntity
  8
Pel_Muntin_AS
100
AcDbPolyline
 90
        4
 70
     1
 43
0.0
 10
18.375
 20
16.62432999999997
 10
11.938
 20
16.62432999999997
 10
11.938
 20
4.625
 10
18.375
 20
4.625
  0
LWPOLYLINE
  5
29507
330
294F8
100
AcDbEntity
  8
Pel_Muntin_AS
100
AcDbPolyline
 90
        4
 70
     1
 43
0.0
 10
11.062
 20
16.62432999999997
 10
4.625
 20
16.62432999999997
 10
4.625
 20
4.625
 10
11.062
 20
4.625
  0
LWPOLYLINE
  5
29508
330
294F8
100
AcDbEntity
  8
Pel_Muntin_AS
100
AcDbPolyline
 90
        4
 70
     1
 43
0.0
 10
11.062
 20
29.49966999999997
 10
4.625
 20
29.49966999999997
 10
4.625
 20
17.50033
 10
11.062
 20
17.50033
  0
LWPOLYLINE
  5
29509
330
294F8
100
AcDbEntity
  8
Pel_Muntin_AS
100
AcDbPolyline
 90
        4
 70
     1
 43
0.0
 10
18.375
 20
29.49966999999997
 10
11.938
 20
29.49966999999997
 10
11.938
 20
17.50033
 10
18.375
 20
17.50033
  0
LWPOLYLINE
  5
2950A
330
294F8
100
AcDbEntity
  8
Pel_Muntin_AS
100
AcDbPolyline
 90
        4
 70
     1
 43
0.0
 10
18.375
 20
42.37499999999999
 10
11.938
 20
42.37499999999999
 10
11.938
 20
30.37567
 10
18.375
 20
30.37567
  0
LWPOLYLINE
  5
2950B
330
294F8
100
AcDbEntity
  8
Pel_Muntin_AS
100
AcDbPolyline
 90
        4
 70
     1
 43
0.0
 10
11.062
 20
42.37499999999999
 10
4.625
 20
42.37499999999999
 10
4.625
 20
30.37567
 10
11.062
 20
30.37567
  0
ENDBLK
  5
2950F
330
294F8
100
AcDbEntity
  8
0
100
AcDbBlockEnd
  0
BLOCK
  5
29529
330
29511
100
AcDbEntity
  8
0
100
AcDbBlockBegin
  2
ASPCICM2-2353T
 70
     0
 10
0.0
 20
0.0
 30
0.0
  3
ASPCICM2-2353T
  1

  0
LWPOLYLINE
  5
29512
330
29511
100
AcDbEntity
  8
Pel_Frame_Outside
100
AcDbPolyline
 90
        8
 70
     1
 43
0.0
 10
23.0
 20
0.0
 10
23.0
 20
53.0
 10
0.0
 20
53.0
 10
0.0
 20
0.0
 10
23.0
 20
0.0
 10
23.0
 20
53.0
 10
46.0
 20
53.0
 10
46.0
 20
0.0
  0
LWPOLYLINE
  5
29513
330
29511
100
AcDbEntity
  8
Pel_Sash_Outside
100
AcDbPolyline
 90
        4
 70
     1
 43
0.0
 10
24.625
 20
1.625
 10
24.625
 20
51.375
 10
44.375
 20
51.375
 10
44.375
 20
1.625
  0
LWPOLYLINE
  5
29514
330
29511
100
AcDbEntity
  8
Pel_Hinging
 48
6.0
100
AcDbPolyline
 90
        3
 70
     0
 43
0.0
 10
24.625
 20
1.625
 10
44.375
 20
26.5
 10
24.625
 20
51.375
  0
LWPOLYLINE
  5
29515
330
29511
100
AcDbEntity
  8
Pel_Sash_Outside
100
AcDbPolyline
 90
        4
 70
     1
 43
0.0
 10
1.625
 20
51.375
 10
21.375
 20
51.375
 10
21.375
 20
1.625
 10
1.625
 20
1.625
  0
LWPOLYLINE
  5
29516
330
29511
100
AcDbEntity
  8
Pel_Hinging
 48
6.0
100
AcDbPolyline
 90
        3
 70
     0
 43
0.0
 10
21.375
 20
1.625
 10
1.625
 20
26.5
 10
21.375
 20
51.375
  0
LWPOLYLINE
  5
29517
330
29511
100
AcDbEntity
  8
Pel_Muntin_AS
100
AcDbPolyline
 90
        4
 70
     1
 43
0.0
 10
41.375
 20
48.375
 10
34.938
 20
48.375
 10
34.938
 20
38.0945
 10
41.375
 20
38.0945
  0
LWPOLYLINE
  5
29518
330
29511
100
AcDbEntity
  8
Pel_Muntin_AS
100
AcDbPolyline
 90
        4
 70
     1
 43
0.0
 10
34.062
 20
48.375
 10
27.625
 20
48.375
 10
27.625
 20
38.0945
 10
34.062
 20
38.0945
  0
LWPOLYLINE
  5
29519
330
29511
100
AcDbEntity
  8
Pel_Muntin_AS
100
AcDbPolyline
 90
        4
 70
     1
 43
0.0
 10
41.375
 20
14.9055
 10
34.938
 20
14.9055
 10
34.938
 20
4.625
 10
41.375
 20
4.625
  0
LWPOLYLINE
  5
2951A
330
29511
100
AcDbEntity
  8
Pel_Muntin_AS
100
AcDbPolyline
 90
        4
 70
     1
 43
0.0
 10
34.062
 20
14.9055
 10
27.625
 20
14.9055
 10
27.625
 20
4.625
 10
34.062
 20
4.625
  0
LWPOLYLINE
  5
2951B
330
29511
100
AcDbEntity
  8
Pel_Muntin_AS
100
AcDbPolyline
 90
        4
 70
     1
 43
0.0
 10
18.375
 20
14.9055
 10
11.938
 20
14.9055
 10
11.938
 20
4.625
 10
18.375
 20
4.625
  0
LWPOLYLINE
  5
2951C
330
29511
100
AcDbEntity
  8
Pel_Muntin_AS
100
AcDbPolyline
 90
        4
 70
     1
 43
0.0
 10
11.062
 20
14.9055
 10
4.625
 20
14.9055
 10
4.625
 20
4.625
 10
11.062
 20
4.625
  0
LWPOLYLINE
  5
2951D
330
29511
100
AcDbEntity
  8
Pel_Muntin_AS
100
AcDbPolyline
 90
        4
 70
     1
 43
0.0
 10
18.375
 20
48.375
 10
11.938
 20
48.375
 10
11.938
 20
38.0945
 10
18.375
 20
38.0945
  0
LWPOLYLINE
  5
2951E
330
29511
100
AcDbEntity
  8
Pel_Muntin_AS
100
AcDbPolyline
 90
        4
 70
     1
 43
0.0
 10
11.062
 20
48.375
 10
4.625
 20
48.375
 10
4.625
 20
38.0945
 10
11.062
 20
38.0945
  0
LWPOLYLINE
  5
2951F
330
29511
100
AcDbEntity
  8
Pel_Muntin_AS
100
AcDbPolyline
 90
        4
 70
     1
 43
0.0
 10
41.375
 20
26.062
 10
34.938
 20
26.062
 10
34.938
 20
15.7815
 10
41.375
 20
15.7815
  0
LWPOLYLINE
  5
29520
330
29511
100
AcDbEntity
  8
Pel_Muntin_AS
100
AcDbPolyline
 90
        4
 70
     1
 43
0.0
 10
34.062
 20
26.062
 10
27.625
 20
26.062
 10
27.625
 20
15.7815
 10
34.062
 20
15.7815
  0
LWPOLYLINE
  5
29521
330
29511
100
AcDbEntity
  8
Pel_Muntin_AS
100
AcDbPolyline
 90
        4
 70
     1
 43
0.0
 10
18.375
 20
26.062
 10
11.938
 20
26.062
 10
11.938
 20
15.7815
 10
18.375
 20
15.7815
  0
LWPOLYLINE
  5
29522
330
29511
100
AcDbEntity
  8
Pel_Muntin_AS
100
AcDbPolyline
 90
        4
 70
     1
 43
0.0
 10
11.062
 20
26.062
 10
4.625
 20
26.062
 10
4.625
 20
15.7815
 10
11.062
 20
15.7815
  0
LWPOLYLINE
  5
29523
330
29511
100
AcDbEntity
  8
Pel_Muntin_AS
100
AcDbPolyline
 90
        4
 70
     1
 43
0.0
 10
41.375
 20
37.2185
 10
34.938
 20
37.2185
 10
34.938
 20
26.938
 10
41.375
 20
26.938
  0
LWPOLYLINE
  5
29524
330
29511
100
AcDbEntity
  8
Pel_Muntin_AS
100
AcDbPolyline
 90
        4
 70
     1
 43
0.0
 10
34.062
 20
37.2185
 10
27.625
 20
37.2185
 10
27.625
 20
26.938
 10
34.062
 20
26.938
  0
LWPOLYLINE
  5
29525
330
29511
100
AcDbEntity
  8
Pel_Muntin_AS
100
AcDbPolyline
 90
        4
 70
     1
 43
0.0
 10
18.375
 20
37.2185
 10
11.938
 20
37.2185
 10
11.938
 20
26.938
 10
18.375
 20
26.938
  0
LWPOLYLINE
  5
29526
330
29511
100
AcDbEntity
  8
Pel_Muntin_AS
100
AcDbPolyline
 90
        4
 70
     1
 43
0.0
 10
11.062
 20
37.2185
 10
4.625
 20
37.2185
 10
4.625
 20
26.938
 10
11.062
 20
26.938
  0
ENDBLK
  5
2952A
330
29511
100
AcDbEntity
  8
0
100
AcDbBlockEnd
  0
BLOCK
  5
29544
330
2952C
100
AcDbEntity
  8
0
100
AcDbBlockBegin
  2
ASPCICM2-2359T
 70
     0
 10
0.0
 20
0.0
 30
0.0
  3
ASPCICM2-2359T
  1

  0
LWPOLYLINE
  5
2952D
330
2952C
100
AcDbEntity
  8
Pel_Frame_Outside
100
AcDbPolyline
 90
        8
 70
     1
 43
0.0
 10
23.0
 20
0.0
 10
23.0
 20
59.0
 10
0.0
 20
59.0
 10
0.0
 20
0.0
 10
23.0
 20
0.0
 10
23.0
 20
59.0
 10
46.0
 20
59.0
 10
46.0
 20
0.0
  0
LWPOLYLINE
  5
2952E
330
2952C
100
AcDbEntity
  8
Pel_Sash_Outside
100
AcDbPolyline
 90
        4
 70
     1
 43
0.0
 10
24.625
 20
1.625
 10
24.625
 20
57.375
 10
44.375
 20
57.375
 10
44.375
 20
1.625
  0
LWPOLYLINE
  5
2952F
330
2952C
100
AcDbEntity
  8
Pel_Hinging
 48
6.0
100
AcDbPolyline
 90
        3
 70
     0
 43
0.0
 10
24.625
 20
1.625
 10
44.375
 20
29.5
 10
24.625
 20
57.375
  0
LWPOLYLINE
  5
29530
330
2952C
100
AcDbEntity
  8
Pel_Sash_Outside
100
AcDbPolyline
 90
        4
 70
     1
 43
0.0
 10
1.625
 20
57.375
 10
21.375
 20
57.375
 10
21.375
 20
1.625
 10
1.625
 20
1.625
  0
LWPOLYLINE
  5
29531
330
2952C
100
AcDbEntity
  8
Pel_Hinging
 48
6.0
100
AcDbPolyline
 90
        3
 70
     0
 43
0.0
 10
21.375
 20
1.625
 10
1.624999999999999
 20
29.5
 10
21.375
 20
57.375
  0
LWPOLYLINE
  5
29532
330
2952C
100
AcDbEntity
  8
Pel_Muntin_AS
100
AcDbPolyline
 90
        4
 70
     1
 43
0.0
 10
41.375
 20
54.375
 10
34.938
 20
54.375
 10
34.938
 20
42.5945
 10
41.375
 20
42.5945
  0
LWPOLYLINE
  5
29533
330
2952C
100
AcDbEntity
  8
Pel_Muntin_AS
100
AcDbPolyline
 90
        4
 70
     1
 43
0.0
 10
34.062
 20
54.375
 10
27.625
 20
54.375
 10
27.625
 20
42.5945
 10
34.062
 20
42.5945
  0
LWPOLYLINE
  5
29534
330
2952C
100
AcDbEntity
  8
Pel_Muntin_AS
100
AcDbPolyline
 90
        4
 70
     1
 43
0.0
 10
41.375
 20
16.4055
 10
34.938
 20
16.4055
 10
34.938
 20
4.625
 10
41.375
 20
4.625
  0
LWPOLYLINE
  5
29535
330
2952C
100
AcDbEntity
  8
Pel_Muntin_AS
100
AcDbPolyline
 90
        4
 70
     1
 43
0.0
 10
34.062
 20
16.4055
 10
27.625
 20
16.4055
 10
27.625
 20
4.625
 10
34.062
 20
4.625
  0
LWPOLYLINE
  5
29536
330
2952C
100
AcDbEntity
  8
Pel_Muntin_AS
100
AcDbPolyline
 90
        4
 70
     1
 43
0.0
 10
18.375
 20
16.4055
 10
11.938
 20
16.4055
 10
11.938
 20
4.625
 10
18.375
 20
4.625
  0
LWPOLYLINE
  5
29537
330
2952C
100
AcDbEntity
  8
Pel_Muntin_AS
100
AcDbPolyline
 90
        4
 70
     1
 43
0.0
 10
11.062
 20
16.4055
 10
4.624999999999999
 20
16.4055
 10
4.625
 20
4.625
 10
11.062
 20
4.625
  0
LWPOLYLINE
  5
29538
330
2952C
100
AcDbEntity
  8
Pel_Muntin_AS
100
AcDbPolyline
 90
        4
 70
     1
 43
0.0
 10
18.375
 20
54.375
 10
11.938
 20
54.375
 10
11.938
 20
42.5945
 10
18.375
 20
42.5945
  0
LWPOLYLINE
  5
29539
330
2952C
100
AcDbEntity
  8
Pel_Muntin_AS
100
AcDbPolyline
 90
        4
 70
     1
 43
0.0
 10
11.062
 20
54.375
 10
4.625
 20
54.375
 10
4.625
 20
42.5945
 10
11.062
 20
42.5945
  0
LWPOLYLINE
  5
2953A
330
2952C
100
AcDbEntity
  8
Pel_Muntin_AS
100
AcDbPolyline
 90
        4
 70
     1
 43
0.0
 10
41.375
 20
29.062
 10
34.938
 20
29.062
 10
34.938
 20
17.2815
 10
41.375
 20
17.2815
  0
LWPOLYLINE
  5
2953B
330
2952C
100
AcDbEntity
  8
Pel_Muntin_AS
100
AcDbPolyline
 90
        4
 70
     1
 43
0.0
 10
34.062
 20
29.062
 10
27.625
 20
29.062
 10
27.625
 20
17.2815
 10
34.062
 20
17.2815
  0
LWPOLYLINE
  5
2953C
330
2952C
100
AcDbEntity
  8
Pel_Muntin_AS
100
AcDbPolyline
 90
        4
 70
     1
 43
0.0
 10
18.375
 20
29.062
 10
11.938
 20
29.062
 10
11.938
 20
17.2815
 10
18.375
 20
17.2815
  0
LWPOLYLINE
  5
2953D
330
2952C
100
AcDbEntity
  8
Pel_Muntin_AS
100
AcDbPolyline
 90
        4
 70
     1
 43
0.0
 10
11.062
 20
29.062
 10
4.624999999999999
 20
29.062
 10
4.624999999999999
 20
17.2815
 10
11.062
 20
17.2815
  0
LWPOLYLINE
  5
2953E
330
2952C
100
AcDbEntity
  8
Pel_Muntin_AS
100
AcDbPolyline
 90
        4
 70
     1
 43
0.0
 10
41.375
 20
41.7185
 10
34.938
 20
41.7185
 10
34.938
 20
29.938
 10
41.375
 20
29.938
  0
LWPOLYLINE
  5
2953F
330
2952C
100
AcDbEntity
  8
Pel_Muntin_AS
100
AcDbPolyline
 90
        4
 70
     1
 43
0.0
 10
34.062
 20
41.7185
 10
27.625
 20
41.7185
 10
27.625
 20
29.938
 10
34.062
 20
29.938
  0
LWPOLYLINE
  5
29540
330
2952C
100
AcDbEntity
  8
Pel_Muntin_AS
100
AcDbPolyline
 90
        4
 70
     1
 43
0.0
 10
18.375
 20
41.7185
 10
11.938
 20
41.7185
 10
11.938
 20
29.938
 10
18.375
 20
29.938
  0
LWPOLYLINE
  5
29541
330
2952C
100
AcDbEntity
  8
Pel_Muntin_AS
100
AcDbPolyline
 90
        4
 70
     1
 43
0.0
 10
11.062
 20
41.7185
 10
4.625
 20
41.7185
 10
4.624999999999999
 20
29.938
 10
11.062
 20
29.938
  0
ENDBLK
  5
29545
330
2952C
100
AcDbEntity
  8
0
100
AcDbBlockEnd
  0
BLOCK
  5
29563
330
29547
100
AcDbEntity
  8
0
100
AcDbBlockBegin
  2
ASPCICM2-2365T
 70
     0
 10
0.0
 20
0.0
 30
0.0
  3
ASPCICM2-2365T
  1

  0
LWPOLYLINE
  5
29548
330
29547
100
AcDbEntity
  8
Pel_Frame_Outside
100
AcDbPolyline
 90
        8
 70
     1
 43
0.0
 10
23.0
 20
0.0
 10
23.0
 20
65.0
 10
0.0
 20
65.0
 10
0.0
 20
0.0
 10
23.0
 20
0.0
 10
23.0
 20
65.0
 10
46.0
 20
65.0
 10
46.0
 20
0.0
  0
LWPOLYLINE
  5
29549
330
29547
100
AcDbEntity
  8
Pel_Sash_Outside
100
AcDbPolyline
 90
        4
 70
     1
 43
0.0
 10
24.625
 20
1.625
 10
24.625
 20
63.375
 10
44.375
 20
63.375
 10
44.375
 20
1.625
  0
LWPOLYLINE
  5
2954A
330
29547
100
AcDbEntity
  8
Pel_Hinging
 48
6.0
100
AcDbPolyline
 90
        3
 70
     0
 43
0.0
 10
24.625
 20
1.625
 10
44.375
 20
32.5
 10
24.625
 20
63.375
  0
LWPOLYLINE
  5
2954B
330
29547
100
AcDbEntity
  8
Pel_Sash_Outside
100
AcDbPolyline
 90
        4
 70
     1
 43
0.0
 10
1.625
 20
63.375
 10
21.375
 20
63.375
 10
21.375
 20
1.625
 10
1.625
 20
1.625
  0
LWPOLYLINE
  5
2954C
330
29547
100
AcDbEntity
  8
Pel_Hinging
 48
6.0
100
AcDbPolyline
 90
        3
 70
     0
 43
0.0
 10
21.375
 20
1.625
 10
1.625
 20
32.5
 10
21.375
 20
63.375
  0
LWPOLYLINE
  5
2954D
330
29547
100
AcDbEntity
  8
Pel_Muntin_AS
100
AcDbPolyline
 90
        4
 70
     1
 43
0.0
 10
41.375
 20
60.375
 10
34.938
 20
60.375
 10
34.938
 20
49.9258
 10
41.375
 20
49.9258
  0
LWPOLYLINE
  5
2954E
330
29547
100
AcDbEntity
  8
Pel_Muntin_AS
100
AcDbPolyline
 90
        4
 70
     1
 43
0.0
 10
34.062
 20
60.375
 10
27.625
 20
60.375
 10
27.625
 20
49.9258
 10
34.062
 20
49.9258
  0
LWPOLYLINE
  5
2954F
330
29547
100
AcDbEntity
  8
Pel_Muntin_AS
100
AcDbPolyline
 90
        4
 70
     1
 43
0.0
 10
41.375
 20
15.0742
 10
34.938
 20
15.0742
 10
34.938
 20
4.625
 10
41.375
 20
4.625
  0
LWPOLYLINE
  5
29550
330
29547
100
AcDbEntity
  8
Pel_Muntin_AS
100
AcDbPolyline
 90
        4
 70
     1
 43
0.0
 10
34.062
 20
15.0742
 10
27.625
 20
15.0742
 10
27.625
 20
4.625
 10
34.062
 20
4.625
  0
LWPOLYLINE
  5
29551
330
29547
100
AcDbEntity
  8
Pel_Muntin_AS
100
AcDbPolyline
 90
        4
 70
     1
 43
0.0
 10
18.375
 20
15.0742
 10
11.938
 20
15.0742
 10
11.938
 20
4.625
 10
18.375
 20
4.625
  0
LWPOLYLINE
  5
29552
330
29547
100
AcDbEntity
  8
Pel_Muntin_AS
100
AcDbPolyline
 90
        4
 70
     1
 43
0.0
 10
11.062
 20
15.0742
 10
4.625
 20
15.0742
 10
4.625
 20
4.625
 10
11.062
 20
4.625
  0
LWPOLYLINE
  5
29553
330
29547
100
AcDbEntity
  8
Pel_Muntin_AS
100
AcDbPolyline
 90
        4
 70
     1
 43
0.0
 10
18.375
 20
60.375
 10
11.938
 20
60.375
 10
11.938
 20
49.9258
 10
18.375
 20
49.9258
  0
LWPOLYLINE
  5
29554
330
29547
100
AcDbEntity
  8
Pel_Muntin_AS
100
AcDbPolyline
 90
        4
 70
     1
 43
0.0
 10
11.062
 20
60.375
 10
4.625
 20
60.375
 10
4.625
 20
49.9258
 10
11.062
 20
49.9258
  0
LWPOLYLINE
  5
29555
330
29547
100
AcDbEntity
  8
Pel_Muntin_AS
100
AcDbPolyline
 90
        4
 70
     1
 43
0.0
 10
41.375
 20
26.3994
 10
34.938
 20
26.3994
 10
34.938
 20
15.9502
 10
41.375
 20
15.9502
  0
LWPOLYLINE
  5
29556
330
29547
100
AcDbEntity
  8
Pel_Muntin_AS
100
AcDbPolyline
 90
        4
 70
     1
 43
0.0
 10
34.062
 20
26.3994
 10
27.625
 20
26.3994
 10
27.625
 20
15.9502
 10
34.062
 20
15.9502
  0
LWPOLYLINE
  5
29557
330
29547
100
AcDbEntity
  8
Pel_Muntin_AS
100
AcDbPolyline
 90
        4
 70
     1
 43
0.0
 10
18.375
 20
26.3994
 10
11.938
 20
26.3994
 10
11.938
 20
15.9502
 10
18.375
 20
15.9502
  0
LWPOLYLINE
  5
29558
330
29547
100
AcDbEntity
  8
Pel_Muntin_AS
100
AcDbPolyline
 90
        4
 70
     1
 43
0.0
 10
11.062
 20
26.3994
 10
4.625
 20
26.3994
 10
4.625
 20
15.9502
 10
11.062
 20
15.9502
  0
LWPOLYLINE
  5
29559
330
29547
100
AcDbEntity
  8
Pel_Muntin_AS
100
AcDbPolyline
 90
        4
 70
     1
 43
0.0
 10
41.375
 20
37.72460000000001
 10
34.938
 20
37.72460000000001
 10
34.938
 20
27.2754
 10
41.375
 20
27.2754
  0
LWPOLYLINE
  5
2955A
330
29547
100
AcDbEntity
  8
Pel_Muntin_AS
100
AcDbPolyline
 90
        4
 70
     1
 43
0.0
 10
34.062
 20
37.72460000000001
 10
27.625
 20
37.72460000000001
 10
27.625
 20
27.2754
 10
34.062
 20
27.2754
  0
LWPOLYLINE
  5
2955B
330
29547
100
AcDbEntity
  8
Pel_Muntin_AS
100
AcDbPolyline
 90
        4
 70
     1
 43
0.0
 10
18.375
 20
37.72460000000001
 10
11.938
 20
37.72460000000001
 10
11.938
 20
27.2754
 10
18.375
 20
27.2754
  0
LWPOLYLINE
  5
2955C
330
29547
100
AcDbEntity
  8
Pel_Muntin_AS
100
AcDbPolyline
 90
        4
 70
     1
 43
0.0
 10
11.062
 20
37.72460000000001
 10
4.625
 20
37.72460000000001
 10
4.625
 20
27.2754
 10
11.062
 20
27.2754
  0
LWPOLYLINE
  5
2955D
330
29547
100
AcDbEntity
  8
Pel_Muntin_AS
100
AcDbPolyline
 90
        4
 70
     1
 43
0.0
 10
41.375
 20
49.04980000000001
 10
34.938
 20
49.04980000000001
 10
34.938
 20
38.6006
 10
41.375
 20
38.6006
  0
LWPOLYLINE
  5
2955E
330
29547
100
AcDbEntity
  8
Pel_Muntin_AS
100
AcDbPolyline
 90
        4
 70
     1
 43
0.0
 10
34.062
 20
49.04980000000001
 10
27.625
 20
49.04980000000001
 10
27.625
 20
38.6006
 10
34.062
 20
38.6006
  0
LWPOLYLINE
  5
2955F
330
29547
100
AcDbEntity
  8
Pel_Muntin_AS
100
AcDbPolyline
 90
        4
 70
     1
 43
0.0
 10
18.375
 20
49.04980000000001
 10
11.938
 20
49.04980000000001
 10
11.938
 20
38.6006
 10
18.375
 20
38.6006
  0
LWPOLYLINE
  5
29560
330
29547
100
AcDbEntity
  8
Pel_Muntin_AS
100
AcDbPolyline
 90
        4
 70
     1
 43
0.0
 10
11.062
 20
49.04980000000001
 10
4.625
 20
49.04980000000001
 10
4.625
 20
38.6006
 10
11.062
 20
38.6006
  0
ENDBLK
  5
29564
330
29547
100
AcDbEntity
  8
0
100
AcDbBlockEnd
  0
BLOCK
  5
2957C
330
29566
100
AcDbEntity
  8
0
100
AcDbBlockBegin
  2
ASPCICM2-2541T
 70
     0
 10
0.0
 20
0.0
 30
0.0
  3
ASPCICM2-2541T
  1

  0
LWPOLYLINE
  5
29567
330
29566
100
AcDbEntity
  8
Pel_Frame_Outside
100
AcDbPolyline
 90
        8
 70
     1
 43
0.0
 10
25.0
 20
0.0
 10
25.0
 20
41.0
 10
0.0
 20
41.0
 10
0.0
 20
0.0
 10
25.0
 20
0.0
 10
25.0
 20
41.0
 10
50.0
 20
41.0
 10
50.0
 20
0.0
  0
LWPOLYLINE
  5
29568
330
29566
100
AcDbEntity
  8
Pel_Sash_Outside
100
AcDbPolyline
 90
        4
 70
     1
 43
0.0
 10
26.625
 20
1.625
 10
26.625
 20
39.375
 10
48.375
 20
39.375
 10
48.375
 20
1.625
  0
LWPOLYLINE
  5
29569
330
29566
100
AcDbEntity
  8
Pel_Sash_Inside
100
AcDbPolyline
 90
        4
 70
     1
 43
0.0
 10
29.625
 20
4.625
 10
29.625
 20
36.375
 10
45.375
 20
36.375
 10
45.375
 20
4.625
  0
LWPOLYLINE
  5
2956A
330
29566
100
AcDbEntity
  8
Pel_Hinging
 48
6.0
100
AcDbPolyline
 90
        3
 70
     0
 43
0.0
 10
26.625
 20
1.625
 10
48.375
 20
20.5
 10
26.625
 20
39.375
  0
LWPOLYLINE
  5
2956B
330
29566
100
AcDbEntity
  8
Pel_Sash_Outside
100
AcDbPolyline
 90
        4
 70
     1
 43
0.0
 10
1.625
 20
39.375
 10
23.375
 20
39.375
 10
23.375
 20
1.625
 10
1.625
 20
1.625
  0
LWPOLYLINE
  5
2956C
330
29566
100
AcDbEntity
  8
Pel_Sash_Inside
100
AcDbPolyline
 90
        4
 70
     1
 43
0.0
 10
20.375
 20
36.375
 10
20.375
 20
4.625
 10
4.625
 20
4.625
 10
4.625
 20
36.375
  0
LWPOLYLINE
  5
2956D
330
29566
100
AcDbEntity
  8
Pel_Hinging
 48
6.0
100
AcDbPolyline
 90
        3
 70
     0
 43
0.0
 10
23.375
 20
1.625
 10
1.625
 20
20.5
 10
23.375
 20
39.375
  0
LWPOLYLINE
  5
2956E
330
29566
100
AcDbEntity
  8
Pel_Muntin_AS
100
AcDbPolyline
 90
        4
 70
     1
 43
0.0
 10
45.375
 20
36.375
 10
37.938
 20
36.375
 10
37.938
 20
26.37567
 10
45.375
 20
26.37567
  0
LWPOLYLINE
  5
2956F
330
29566
100
AcDbEntity
  8
Pel_Muntin_AS
100
AcDbPolyline
 90
        4
 70
     1
 43
0.0
 10
37.062
 20
36.375
 10
29.625
 20
36.375
 10
29.625
 20
26.37567
 10
37.062
 20
26.37567
  0
LWPOLYLINE
  5
29570
330
29566
100
AcDbEntity
  8
Pel_Muntin_AS
100
AcDbPolyline
 90
        4
 70
     1
 43
0.0
 10
45.375
 20
14.62433
 10
37.938
 20
14.62433
 10
37.938
 20
4.625
 10
45.375
 20
4.625
  0
LWPOLYLINE
  5
29571
330
29566
100
AcDbEntity
  8
Pel_Muntin_AS
100
AcDbPolyline
 90
        4
 70
     1
 43
0.0
 10
37.062
 20
14.62433
 10
29.625
 20
14.62433
 10
29.625
 20
4.625
 10
37.062
 20
4.625
  0
LWPOLYLINE
  5
29572
330
29566
100
AcDbEntity
  8
Pel_Muntin_AS
100
AcDbPolyline
 90
        4
 70
     1
 43
0.0
 10
20.375
 20
14.62433
 10
12.938
 20
14.62433
 10
12.938
 20
4.625
 10
20.375
 20
4.625
  0
LWPOLYLINE
  5
29573
330
29566
100
AcDbEntity
  8
Pel_Muntin_AS
100
AcDbPolyline
 90
        4
 70
     1
 43
0.0
 10
20.375
 20
36.375
 10
12.938
 20
36.375
 10
12.938
 20
26.37567
 10
20.375
 20
26.37567
  0
LWPOLYLINE
  5
29574
330
29566
100
AcDbEntity
  8
Pel_Muntin_AS
100
AcDbPolyline
 90
        4
 70
     1
 43
0.0
 10
12.062
 20
14.62433
 10
4.625
 20
14.62433
 10
4.625
 20
4.625
 10
12.062
 20
4.625
  0
LWPOLYLINE
  5
29575
330
29566
100
AcDbEntity
  8
Pel_Muntin_AS
100
AcDbPolyline
 90
        4
 70
     1
 43
0.0
 10
12.062
 20
36.375
 10
4.625
 20
36.375
 10
4.625
 20
26.37567
 10
12.062
 20
26.37567
  0
LWPOLYLINE
  5
29576
330
29566
100
AcDbEntity
  8
Pel_Muntin_AS
100
AcDbPolyline
 90
        4
 70
     1
 43
0.0
 10
45.375
 20
25.49966499999998
 10
37.938
 20
25.49966499999998
 10
37.938
 20
15.50033500000002
 10
45.375
 20
15.50033500000002
  0
LWPOLYLINE
  5
29577
330
29566
100
AcDbEntity
  8
Pel_Muntin_AS
100
AcDbPolyline
 90
        4
 70
     1
 43
0.0
 10
37.062
 20
25.49966499999998
 10
29.625
 20
25.49966499999998
 10
29.625
 20
15.50033500000002
 10
37.062
 20
15.50033500000002
  0
LWPOLYLINE
  5
29578
330
29566
100
AcDbEntity
  8
Pel_Muntin_AS
100
AcDbPolyline
 90
        4
 70
     1
 43
0.0
 10
20.375
 20
25.49966499999998
 10
12.938
 20
25.49966499999998
 10
12.938
 20
15.50033500000002
 10
20.375
 20
15.50033500000002
  0
LWPOLYLINE
  5
29579
330
29566
100
AcDbEntity
  8
Pel_Muntin_AS
100
AcDbPolyline
 90
        4
 70
     1
 43
0.0
 10
12.062
 20
25.49966499999998
 10
4.625
 20
25.49966499999998
 10
4.625
 20
15.50033500000002
 10
12.062
 20
15.50033500000002
  0
ENDBLK
  5
2957D
330
29566
100
AcDbEntity
  8
0
100
AcDbBlockEnd
  0
BLOCK
  5
29595
330
2957F
100
AcDbEntity
  8
0
100
AcDbBlockBegin
  2
ASPCICM2-2547T
 70
     0
 10
0.0
 20
0.0
 30
0.0
  3
ASPCICM2-2547T
  1

  0
LWPOLYLINE
  5
29580
330
2957F
100
AcDbEntity
  8
Pel_Frame_Outside
100
AcDbPolyline
 90
        8
 70
     1
 43
0.0
 10
25.0
 20
0.0
 10
25.0
 20
47.0
 10
0.0
 20
47.0
 10
0.0
 20
0.0
 10
25.0
 20
0.0
 10
25.0
 20
47.0
 10
50.0
 20
47.0
 10
50.0
 20
0.0
  0
LWPOLYLINE
  5
29581
330
2957F
100
AcDbEntity
  8
Pel_Sash_Outside
100
AcDbPolyline
 90
        4
 70
     1
 43
0.0
 10
26.625
 20
1.625
 10
26.625
 20
45.375
 10
48.375
 20
45.375
 10
48.375
 20
1.625
  0
LWPOLYLINE
  5
29582
330
2957F
100
AcDbEntity
  8
Pel_Sash_Inside
100
AcDbPolyline
 90
        4
 70
     1
 43
0.0
 10
29.625
 20
4.625
 10
29.625
 20
42.37499999999999
 10
45.375
 20
42.37499999999999
 10
45.375
 20
4.625
  0
LWPOLYLINE
  5
29583
330
2957F
100
AcDbEntity
  8
Pel_Hinging
 48
6.0
100
AcDbPolyline
 90
        3
 70
     0
 43
0.0
 10
26.625
 20
1.625
 10
48.375
 20
23.5
 10
26.625
 20
45.375
  0
LWPOLYLINE
  5
29584
330
2957F
100
AcDbEntity
  8
Pel_Sash_Outside
100
AcDbPolyline
 90
        4
 70
     1
 43
0.0
 10
1.625
 20
45.375
 10
23.375
 20
45.375
 10
23.375
 20
1.625
 10
1.625
 20
1.625
  0
LWPOLYLINE
  5
29585
330
2957F
100
AcDbEntity
  8
Pel_Sash_Inside
100
AcDbPolyline
 90
        4
 70
     1
 43
0.0
 10
20.375
 20
42.37499999999999
 10
20.375
 20
4.625
 10
4.625
 20
4.625
 10
4.625
 20
42.37499999999999
  0
LWPOLYLINE
  5
29586
330
2957F
100
AcDbEntity
  8
Pel_Hinging
 48
6.0
100
AcDbPolyline
 90
        3
 70
     0
 43
0.0
 10
23.375
 20
1.625
 10
1.625
 20
23.5
 10
23.375
 20
45.375
  0
LWPOLYLINE
  5
29587
330
2957F
100
AcDbEntity
  8
Pel_Muntin_AS
100
AcDbPolyline
 90
        4
 70
     1
 43
0.0
 10
45.375
 20
42.37499999999999
 10
37.938
 20
42.37499999999999
 10
37.938
 20
30.37567
 10
45.375
 20
30.37567
  0
LWPOLYLINE
  5
29588
330
2957F
100
AcDbEntity
  8
Pel_Muntin_AS
100
AcDbPolyline
 90
        4
 70
     1
 43
0.0
 10
37.062
 20
42.37499999999999
 10
29.625
 20
42.37499999999999
 10
29.625
 20
30.37567
 10
37.062
 20
30.37567
  0
LWPOLYLINE
  5
29589
330
2957F
100
AcDbEntity
  8
Pel_Muntin_AS
100
AcDbPolyline
 90
        4
 70
     1
 43
0.0
 10
45.375
 20
16.62433
 10
37.938
 20
16.62433
 10
37.938
 20
4.625
 10
45.375
 20
4.625
  0
LWPOLYLINE
  5
2958A
330
2957F
100
AcDbEntity
  8
Pel_Muntin_AS
100
AcDbPolyline
 90
        4
 70
     1
 43
0.0
 10
37.062
 20
16.62433
 10
29.625
 20
16.62433
 10
29.625
 20
4.625
 10
37.062
 20
4.625
  0
LWPOLYLINE
  5
2958B
330
2957F
100
AcDbEntity
  8
Pel_Muntin_AS
100
AcDbPolyline
 90
        4
 70
     1
 43
0.0
 10
20.375
 20
16.62433
 10
12.938
 20
16.62433
 10
12.938
 20
4.625
 10
20.375
 20
4.625
  0
LWPOLYLINE
  5
2958C
330
2957F
100
AcDbEntity
  8
Pel_Muntin_AS
100
AcDbPolyline
 90
        4
 70
     1
 43
0.0
 10
20.375
 20
42.37499999999999
 10
12.938
 20
42.37499999999999
 10
12.938
 20
30.37567
 10
20.375
 20
30.37567
  0
LWPOLYLINE
  5
2958D
330
2957F
100
AcDbEntity
  8
Pel_Muntin_AS
100
AcDbPolyline
 90
        4
 70
     1
 43
0.0
 10
12.062
 20
16.62433
 10
4.625
 20
16.62433
 10
4.625
 20
4.625
 10
12.062
 20
4.625
  0
LWPOLYLINE
  5
2958E
330
2957F
100
AcDbEntity
  8
Pel_Muntin_AS
100
AcDbPolyline
 90
        4
 70
     1
 43
0.0
 10
12.062
 20
42.37499999999999
 10
4.625
 20
42.37499999999999
 10
4.625
 20
30.37567
 10
12.062
 20
30.37567
  0
LWPOLYLINE
  5
2958F
330
2957F
100
AcDbEntity
  8
Pel_Muntin_AS
100
AcDbPolyline
 90
        4
 70
     1
 43
0.0
 10
45.375
 20
29.49966499999998
 10
37.938
 20
29.49966499999998
 10
37.938
 20
17.50033500000002
 10
45.375
 20
17.50033500000002
  0
LWPOLYLINE
  5
29590
330
2957F
100
AcDbEntity
  8
Pel_Muntin_AS
100
AcDbPolyline
 90
        4
 70
     1
 43
0.0
 10
37.062
 20
29.49966499999998
 10
29.625
 20
29.49966499999998
 10
29.625
 20
17.50033500000002
 10
37.062
 20
17.50033500000002
  0
LWPOLYLINE
  5
29591
330
2957F
100
AcDbEntity
  8
Pel_Muntin_AS
100
AcDbPolyline
 90
        4
 70
     1
 43
0.0
 10
20.375
 20
29.49966499999998
 10
12.938
 20
29.49966499999998
 10
12.938
 20
17.50033500000002
 10
20.375
 20
17.50033500000002
  0
LWPOLYLINE
  5
29592
330
2957F
100
AcDbEntity
  8
Pel_Muntin_AS
100
AcDbPolyline
 90
        4
 70
     1
 43
0.0
 10
12.062
 20
29.49966499999998
 10
4.625
 20
29.49966499999998
 10
4.625
 20
17.50033500000002
 10
12.062
 20
17.50033500000002
  0
ENDBLK
  5
29596
330
2957F
100
AcDbEntity
  8
0
100
AcDbBlockEnd
  0
BLOCK
  5
295B2
330
29598
100
AcDbEntity
  8
0
100
AcDbBlockBegin
  2
ASPCICM2-2553T
 70
     0
 10
0.0
 20
0.0
 30
0.0
  3
ASPCICM2-2553T
  1

  0
LWPOLYLINE
  5
29599
330
29598
100
AcDbEntity
  8
Pel_Frame_Outside
100
AcDbPolyline
 90
        8
 70
     1
 43
0.0
 10
25.0
 20
0.0
 10
25.0
 20
53.0
 10
0.0
 20
53.0
 10
0.0
 20
0.0
 10
25.0
 20
0.0
 10
25.0
 20
53.0
 10
50.0
 20
53.0
 10
50.0
 20
0.0
  0
LWPOLYLINE
  5
2959A
330
29598
100
AcDbEntity
  8
Pel_Sash_Outside
100
AcDbPolyline
 90
        4
 70
     1
 43
0.0
 10
26.625
 20
1.625
 10
26.625
 20
51.375
 10
48.375
 20
51.375
 10
48.375
 20
1.625
  0
LWPOLYLINE
  5
2959B
330
29598
100
AcDbEntity
  8
Pel_Sash_Inside
100
AcDbPolyline
 90
        4
 70
     1
 43
0.0
 10
29.625
 20
4.625
 10
29.625
 20
48.375
 10
45.375
 20
48.375
 10
45.375
 20
4.625
  0
LWPOLYLINE
  5
2959C
330
29598
100
AcDbEntity
  8
Pel_Hinging
 48
6.0
100
AcDbPolyline
 90
        3
 70
     0
 43
0.0
 10
26.625
 20
1.625
 10
48.375
 20
26.5
 10
26.625
 20
51.375
  0
LWPOLYLINE
  5
2959D
330
29598
100
AcDbEntity
  8
Pel_Sash_Outside
100
AcDbPolyline
 90
        4
 70
     1
 43
0.0
 10
1.625
 20
51.375
 10
23.375
 20
51.375
 10
23.375
 20
1.625
 10
1.625
 20
1.625
  0
LWPOLYLINE
  5
2959E
330
29598
100
AcDbEntity
  8
Pel_Sash_Inside
100
AcDbPolyline
 90
        4
 70
     1
 43
0.0
 10
20.375
 20
48.375
 10
20.375
 20
4.625
 10
4.625
 20
4.625
 10
4.625
 20
48.375
  0
LWPOLYLINE
  5
2959F
330
29598
100
AcDbEntity
  8
Pel_Hinging
 48
6.0
100
AcDbPolyline
 90
        3
 70
     0
 43
0.0
 10
23.375
 20
1.625
 10
1.625
 20
26.5
 10
23.375
 20
51.375
  0
LWPOLYLINE
  5
295A0
330
29598
100
AcDbEntity
  8
Pel_Muntin_AS
100
AcDbPolyline
 90
        4
 70
     1
 43
0.0
 10
45.375
 20
48.375
 10
37.938
 20
48.375
 10
37.938
 20
38.0945
 10
45.375
 20
38.0945
  0
LWPOLYLINE
  5
295A1
330
29598
100
AcDbEntity
  8
Pel_Muntin_AS
100
AcDbPolyline
 90
        4
 70
     1
 43
0.0
 10
37.062
 20
48.375
 10
29.625
 20
48.375
 10
29.625
 20
38.0945
 10
37.062
 20
38.0945
  0
LWPOLYLINE
  5
295A2
330
29598
100
AcDbEntity
  8
Pel_Muntin_AS
100
AcDbPolyline
 90
        4
 70
     1
 43
0.0
 10
45.375
 20
14.9055
 10
37.938
 20
14.9055
 10
37.938
 20
4.625
 10
45.375
 20
4.625
  0
LWPOLYLINE
  5
295A3
330
29598
100
AcDbEntity
  8
Pel_Muntin_AS
100
AcDbPolyline
 90
        4
 70
     1
 43
0.0
 10
37.062
 20
14.9055
 10
29.625
 20
14.9055
 10
29.625
 20
4.625
 10
37.062
 20
4.625
  0
LWPOLYLINE
  5
295A4
330
29598
100
AcDbEntity
  8
Pel_Muntin_AS
100
AcDbPolyline
 90
        4
 70
     1
 43
0.0
 10
20.375
 20
14.9055
 10
12.938
 20
14.9055
 10
12.938
 20
4.625
 10
20.375
 20
4.625
  0
LWPOLYLINE
  5
295A5
330
29598
100
AcDbEntity
  8
Pel_Muntin_AS
100
AcDbPolyline
 90
        4
 70
     1
 43
0.0
 10
20.375
 20
48.375
 10
12.938
 20
48.375
 10
12.938
 20
38.0945
 10
20.375
 20
38.0945
  0
LWPOLYLINE
  5
295A6
330
29598
100
AcDbEntity
  8
Pel_Muntin_AS
100
AcDbPolyline
 90
        4
 70
     1
 43
0.0
 10
12.062
 20
14.9055
 10
4.625
 20
14.9055
 10
4.625
 20
4.625
 10
12.062
 20
4.625
  0
LWPOLYLINE
  5
295A7
330
29598
100
AcDbEntity
  8
Pel_Muntin_AS
100
AcDbPolyline
 90
        4
 70
     1
 43
0.0
 10
12.062
 20
48.375
 10
4.625
 20
48.375
 10
4.625
 20
38.0945
 10
12.062
 20
38.0945
  0
LWPOLYLINE
  5
295A8
330
29598
100
AcDbEntity
  8
Pel_Muntin_AS
100
AcDbPolyline
 90
        4
 70
     1
 43
0.0
 10
45.375
 20
37.2185
 10
37.938
 20
37.2185
 10
37.938
 20
26.938
 10
45.375
 20
26.938
  0
LWPOLYLINE
  5
295A9
330
29598
100
AcDbEntity
  8
Pel_Muntin_AS
100
AcDbPolyline
 90
        4
 70
     1
 43
0.0
 10
37.062
 20
37.2185
 10
29.625
 20
37.2185
 10
29.625
 20
26.938
 10
37.062
 20
26.938
  0
LWPOLYLINE
  5
295AA
330
29598
100
AcDbEntity
  8
Pel_Muntin_AS
100
AcDbPolyline
 90
        4
 70
     1
 43
0.0
 10
20.375
 20
37.2185
 10
12.938
 20
37.2185
 10
12.938
 20
26.938
 10
20.375
 20
26.938
  0
LWPOLYLINE
  5
295AB
330
29598
100
AcDbEntity
  8
Pel_Muntin_AS
100
AcDbPolyline
 90
        4
 70
     1
 43
0.0
 10
12.062
 20
37.2185
 10
4.625000000000001
 20
37.2185
 10
4.625000000000001
 20
26.938
 10
12.062
 20
26.938
  0
LWPOLYLINE
  5
295AC
330
29598
100
AcDbEntity
  8
Pel_Muntin_AS
100
AcDbPolyline
 90
        4
 70
     1
 43
0.0
 10
45.375
 20
26.062
 10
37.938
 20
26.062
 10
37.938
 20
15.7815
 10
45.375
 20
15.7815
  0
LWPOLYLINE
  5
295AD
330
29598
100
AcDbEntity
  8
Pel_Muntin_AS
100
AcDbPolyline
 90
        4
 70
     1
 43
0.0
 10
37.062
 20
26.062
 10
29.625
 20
26.062
 10
29.625
 20
15.7815
 10
37.062
 20
15.7815
  0
LWPOLYLINE
  5
295AE
330
29598
100
AcDbEntity
  8
Pel_Muntin_AS
100
AcDbPolyline
 90
        4
 70
     1
 43
0.0
 10
20.375
 20
26.062
 10
12.938
 20
26.062
 10
12.938
 20
15.7815
 10
20.375
 20
15.7815
  0
LWPOLYLINE
  5
295AF
330
29598
100
AcDbEntity
  8
Pel_Muntin_AS
100
AcDbPolyline
 90
        4
 70
     1
 43
0.0
 10
12.062
 20
26.062
 10
4.625
 20
26.062
 10
4.625
 20
15.7815
 10
12.062
 20
15.7815
  0
ENDBLK
  5
295B3
330
29598
100
AcDbEntity
  8
0
100
AcDbBlockEnd
  0
BLOCK
  5
295CF
330
295B5
100
AcDbEntity
  8
0
100
AcDbBlockBegin
  2
ASPCICM2-2559T
 70
     0
 10
0.0
 20
0.0
 30
0.0
  3
ASPCICM2-2559T
  1

  0
LWPOLYLINE
  5
295B6
330
295B5
100
AcDbEntity
  8
Pel_Frame_Outside
100
AcDbPolyline
 90
        8
 70
     1
 43
0.0
 10
25.0
 20
0.0
 10
25.0
 20
59.0
 10
0.0
 20
59.0
 10
0.0
 20
0.0
 10
25.0
 20
0.0
 10
25.0
 20
59.0
 10
50.0
 20
59.0
 10
50.0
 20
0.0
  0
LWPOLYLINE
  5
295B7
330
295B5
100
AcDbEntity
  8
Pel_Sash_Outside
100
AcDbPolyline
 90
        4
 70
     1
 43
0.0
 10
26.625
 20
1.625
 10
26.625
 20
57.375
 10
48.375
 20
57.375
 10
48.375
 20
1.625
  0
LWPOLYLINE
  5
295B8
330
295B5
100
AcDbEntity
  8
Pel_Sash_Inside
100
AcDbPolyline
 90
        4
 70
     1
 43
0.0
 10
29.625
 20
4.625
 10
29.625
 20
54.375
 10
45.375
 20
54.375
 10
45.375
 20
4.625
  0
LWPOLYLINE
  5
295B9
330
295B5
100
AcDbEntity
  8
Pel_Hinging
 48
6.0
100
AcDbPolyline
 90
        3
 70
     0
 43
0.0
 10
26.625
 20
1.625
 10
48.375
 20
29.5000005
 10
26.625
 20
57.375
  0
LWPOLYLINE
  5
295BA
330
295B5
100
AcDbEntity
  8
Pel_Sash_Outside
100
AcDbPolyline
 90
        4
 70
     1
 43
0.0
 10
1.625
 20
57.375
 10
23.375
 20
57.375
 10
23.375
 20
1.625
 10
1.625
 20
1.625
  0
LWPOLYLINE
  5
295BB
330
295B5
100
AcDbEntity
  8
Pel_Sash_Inside
100
AcDbPolyline
 90
        4
 70
     1
 43
0.0
 10
20.375
 20
54.375
 10
20.375
 20
4.625
 10
4.625
 20
4.625
 10
4.625
 20
54.375
  0
LWPOLYLINE
  5
295BC
330
295B5
100
AcDbEntity
  8
Pel_Hinging
 48
6.0
100
AcDbPolyline
 90
        3
 70
     0
 43
0.0
 10
23.375
 20
1.625
 10
1.625
 20
29.5
 10
23.375
 20
57.375
  0
LWPOLYLINE
  5
295BD
330
295B5
100
AcDbEntity
  8
Pel_Muntin_AS
100
AcDbPolyline
 90
        4
 70
     1
 43
0.0
 10
45.375
 20
54.375
 10
37.938
 20
54.375
 10
37.938
 20
42.5945
 10
45.375
 20
42.5945
  0
LWPOLYLINE
  5
295BE
330
295B5
100
AcDbEntity
  8
Pel_Muntin_AS
100
AcDbPolyline
 90
        4
 70
     1
 43
0.0
 10
37.062
 20
54.375
 10
29.625
 20
54.375
 10
29.625
 20
42.5945
 10
37.062
 20
42.5945
  0
LWPOLYLINE
  5
295BF
330
295B5
100
AcDbEntity
  8
Pel_Muntin_AS
100
AcDbPolyline
 90
        4
 70
     1
 43
0.0
 10
45.375
 20
16.40549999999999
 10
37.938
 20
16.40549999999999
 10
37.938
 20
4.625
 10
45.375
 20
4.625
  0
LWPOLYLINE
  5
295C0
330
295B5
100
AcDbEntity
  8
Pel_Muntin_AS
100
AcDbPolyline
 90
        4
 70
     1
 43
0.0
 10
37.062
 20
16.40549999999999
 10
29.625
 20
16.40549999999999
 10
29.625
 20
4.625
 10
37.062
 20
4.625
  0
LWPOLYLINE
  5
295C1
330
295B5
100
AcDbEntity
  8
Pel_Muntin_AS
100
AcDbPolyline
 90
        4
 70
     1
 43
0.0
 10
20.375
 20
16.40549999999999
 10
12.938
 20
16.40549999999999
 10
12.938
 20
4.625
 10
20.375
 20
4.625
  0
LWPOLYLINE
  5
295C2
330
295B5
100
AcDbEntity
  8
Pel_Muntin_AS
100
AcDbPolyline
 90
        4
 70
     1
 43
0.0
 10
20.375
 20
54.375
 10
12.938
 20
54.375
 10
12.938
 20
42.5945
 10
20.375
 20
42.5945
  0
LWPOLYLINE
  5
295C3
330
295B5
100
AcDbEntity
  8
Pel_Muntin_AS
100
AcDbPolyline
 90
        4
 70
     1
 43
0.0
 10
12.062
 20
16.40549999999999
 10
4.625
 20
16.40549999999999
 10
4.625
 20
4.625
 10
12.062
 20
4.625
  0
LWPOLYLINE
  5
295C4
330
295B5
100
AcDbEntity
  8
Pel_Muntin_AS
100
AcDbPolyline
 90
        4
 70
     1
 43
0.0
 10
12.062
 20
54.375
 10
4.625
 20
54.375
 10
4.625
 20
42.5945
 10
12.062
 20
42.5945
  0
LWPOLYLINE
  5
295C5
330
295B5
100
AcDbEntity
  8
Pel_Muntin_AS
100
AcDbPolyline
 90
        4
 70
     1
 43
0.0
 10
45.375
 20
41.71849999999999
 10
37.938
 20
41.71849999999999
 10
37.938
 20
29.938
 10
45.375
 20
29.938
  0
LWPOLYLINE
  5
295C6
330
295B5
100
AcDbEntity
  8
Pel_Muntin_AS
100
AcDbPolyline
 90
        4
 70
     1
 43
0.0
 10
37.062
 20
41.71849999999999
 10
29.625
 20
41.71849999999999
 10
29.625
 20
29.938
 10
37.062
 20
29.938
  0
LWPOLYLINE
  5
295C7
330
295B5
100
AcDbEntity
  8
Pel_Muntin_AS
100
AcDbPolyline
 90
        4
 70
     1
 43
0.0
 10
20.375
 20
41.71849999999999
 10
12.938
 20
41.71849999999999
 10
12.938
 20
29.938
 10
20.375
 20
29.938
  0
LWPOLYLINE
  5
295C8
330
295B5
100
AcDbEntity
  8
Pel_Muntin_AS
100
AcDbPolyline
 90
        4
 70
     1
 43
0.0
 10
12.062
 20
41.71849999999999
 10
4.625
 20
41.71849999999999
 10
4.625
 20
29.938
 10
12.062
 20
29.938
  0
LWPOLYLINE
  5
295C9
330
295B5
100
AcDbEntity
  8
Pel_Muntin_AS
100
AcDbPolyline
 90
        4
 70
     1
 43
0.0
 10
45.375
 20
29.062
 10
37.938
 20
29.062
 10
37.938
 20
17.2815
 10
45.375
 20
17.2815
  0
LWPOLYLINE
  5
295CA
330
295B5
100
AcDbEntity
  8
Pel_Muntin_AS
100
AcDbPolyline
 90
        4
 70
     1
 43
0.0
 10
37.062
 20
29.062
 10
29.625
 20
29.062
 10
29.625
 20
17.2815
 10
37.062
 20
17.2815
  0
LWPOLYLINE
  5
295CB
330
295B5
100
AcDbEntity
  8
Pel_Muntin_AS
100
AcDbPolyline
 90
        4
 70
     1
 43
0.0
 10
20.375
 20
29.062
 10
12.938
 20
29.062
 10
12.938
 20
17.2815
 10
20.375
 20
17.2815
  0
LWPOLYLINE
  5
295CC
330
295B5
100
AcDbEntity
  8
Pel_Muntin_AS
100
AcDbPolyline
 90
        4
 70
     1
 43
0.0
 10
12.062
 20
29.062
 10
4.625
 20
29.062
 10
4.625
 20
17.2815
 10
12.062
 20
17.2815
  0
ENDBLK
  5
295D0
330
295B5
100
AcDbEntity
  8
0
100
AcDbBlockEnd
  0
BLOCK
  5
295F0
330
295D2
100
AcDbEntity
  8
0
100
AcDbBlockBegin
  2
ASPCICM2-2565T
 70
     0
 10
0.0
 20
0.0
 30
0.0
  3
ASPCICM2-2565T
  1

  0
LWPOLYLINE
  5
295D3
330
295D2
100
AcDbEntity
  8
Pel_Frame_Outside
100
AcDbPolyline
 90
        8
 70
     1
 43
0.0
 10
25.0
 20
0.0
 10
25.0
 20
65.0
 10
0.0
 20
65.0
 10
0.0
 20
0.0
 10
25.0
 20
0.0
 10
25.0
 20
65.0
 10
50.0
 20
65.0
 10
50.0
 20
0.0
  0
LWPOLYLINE
  5
295D4
330
295D2
100
AcDbEntity
  8
Pel_Sash_Outside
100
AcDbPolyline
 90
        4
 70
     1
 43
0.0
 10
26.625
 20
1.625
 10
26.625
 20
63.375
 10
48.375
 20
63.375
 10
48.375
 20
1.625
  0
LWPOLYLINE
  5
295D5
330
295D2
100
AcDbEntity
  8
Pel_Sash_Inside
100
AcDbPolyline
 90
        4
 70
     1
 43
0.0
 10
29.625
 20
4.625
 10
29.625
 20
60.375
 10
45.375
 20
60.375
 10
45.375
 20
4.625
  0
LWPOLYLINE
  5
295D6
330
295D2
100
AcDbEntity
  8
Pel_Hinging
 48
6.0
100
AcDbPolyline
 90
        3
 70
     0
 43
0.0
 10
26.625
 20
1.625
 10
48.375
 20
32.5
 10
26.625
 20
63.375
  0
LWPOLYLINE
  5
295D7
330
295D2
100
AcDbEntity
  8
Pel_Sash_Outside
100
AcDbPolyline
 90
        4
 70
     1
 43
0.0
 10
1.625
 20
63.375
 10
23.375
 20
63.375
 10
23.375
 20
1.625
 10
1.625
 20
1.625
  0
LWPOLYLINE
  5
295D8
330
295D2
100
AcDbEntity
  8
Pel_Sash_Inside
100
AcDbPolyline
 90
        4
 70
     1
 43
0.0
 10
20.375
 20
60.375
 10
20.375
 20
4.625
 10
4.625
 20
4.625
 10
4.625
 20
60.375
  0
LWPOLYLINE
  5
295D9
330
295D2
100
AcDbEntity
  8
Pel_Hinging
 48
6.0
100
AcDbPolyline
 90
        3
 70
     0
 43
0.0
 10
23.375
 20
1.625
 10
1.625
 20
32.5
 10
23.375
 20
63.375
  0
LWPOLYLINE
  5
295DA
330
295D2
100
AcDbEntity
  8
Pel_Muntin_AS
100
AcDbPolyline
 90
        4
 70
     1
 43
0.0
 10
45.375
 20
60.375
 10
37.938
 20
60.375
 10
37.938
 20
49.9258
 10
45.375
 20
49.9258
  0
LWPOLYLINE
  5
295DB
330
295D2
100
AcDbEntity
  8
Pel_Muntin_AS
100
AcDbPolyline
 90
        4
 70
     1
 43
0.0
 10
37.062
 20
60.375
 10
29.625
 20
60.375
 10
29.625
 20
49.9258
 10
37.062
 20
49.9258
  0
LWPOLYLINE
  5
295DC
330
295D2
100
AcDbEntity
  8
Pel_Muntin_AS
100
AcDbPolyline
 90
        4
 70
     1
 43
0.0
 10
45.375
 20
15.0742
 10
37.938
 20
15.0742
 10
37.938
 20
4.625
 10
45.375
 20
4.625
  0
LWPOLYLINE
  5
295DD
330
295D2
100
AcDbEntity
  8
Pel_Muntin_AS
100
AcDbPolyline
 90
        4
 70
     1
 43
0.0
 10
37.062
 20
15.0742
 10
29.625
 20
15.0742
 10
29.625
 20
4.625
 10
37.062
 20
4.625
  0
LWPOLYLINE
  5
295DE
330
295D2
100
AcDbEntity
  8
Pel_Muntin_AS
100
AcDbPolyline
 90
        4
 70
     1
 43
0.0
 10
20.375
 20
15.0742
 10
12.938
 20
15.0742
 10
12.938
 20
4.625
 10
20.375
 20
4.625
  0
LWPOLYLINE
  5
295DF
330
295D2
100
AcDbEntity
  8
Pel_Muntin_AS
100
AcDbPolyline
 90
        4
 70
     1
 43
0.0
 10
20.375
 20
60.375
 10
12.938
 20
60.375
 10
12.938
 20
49.9258
 10
20.375
 20
49.9258
  0
LWPOLYLINE
  5
295E0
330
295D2
100
AcDbEntity
  8
Pel_Muntin_AS
100
AcDbPolyline
 90
        4
 70
     1
 43
0.0
 10
12.062
 20
15.0742
 10
4.625
 20
15.0742
 10
4.625
 20
4.625
 10
12.062
 20
4.625
  0
LWPOLYLINE
  5
295E1
330
295D2
100
AcDbEntity
  8
Pel_Muntin_AS
100
AcDbPolyline
 90
        4
 70
     1
 43
0.0
 10
12.062
 20
60.375
 10
4.625
 20
60.375
 10
4.625
 20
49.9258
 10
12.062
 20
49.9258
  0
LWPOLYLINE
  5
295E2
330
295D2
100
AcDbEntity
  8
Pel_Muntin_AS
100
AcDbPolyline
 90
        4
 70
     1
 43
0.0
 10
45.375
 20
26.3994
 10
37.938
 20
26.3994
 10
37.938
 20
15.9502
 10
45.375
 20
15.9502
  0
LWPOLYLINE
  5
295E3
330
295D2
100
AcDbEntity
  8
Pel_Muntin_AS
100
AcDbPolyline
 90
        4
 70
     1
 43
0.0
 10
37.062
 20
26.3994
 10
29.625
 20
26.3994
 10
29.625
 20
15.9502
 10
37.062
 20
15.9502
  0
LWPOLYLINE
  5
295E4
330
295D2
100
AcDbEntity
  8
Pel_Muntin_AS
100
AcDbPolyline
 90
        4
 70
     1
 43
0.0
 10
20.375
 20
26.3994
 10
12.938
 20
26.3994
 10
12.938
 20
15.9502
 10
20.375
 20
15.9502
  0
LWPOLYLINE
  5
295E5
330
295D2
100
AcDbEntity
  8
Pel_Muntin_AS
100
AcDbPolyline
 90
        4
 70
     1
 43
0.0
 10
12.062
 20
26.3994
 10
4.625000000000001
 20
26.3994
 10
4.625000000000001
 20
15.9502
 10
12.062
 20
15.9502
  0
LWPOLYLINE
  5
295E6
330
295D2
100
AcDbEntity
  8
Pel_Muntin_AS
100
AcDbPolyline
 90
        4
 70
     1
 43
0.0
 10
45.375
 20
37.72460000000001
 10
37.938
 20
37.72460000000001
 10
37.938
 20
27.2754
 10
45.375
 20
27.2754
  0
LWPOLYLINE
  5
295E7
330
295D2
100
AcDbEntity
  8
Pel_Muntin_AS
100
AcDbPolyline
 90
        4
 70
     1
 43
0.0
 10
37.062
 20
37.72460000000001
 10
29.625
 20
37.72460000000001
 10
29.625
 20
27.2754
 10
37.062
 20
27.2754
  0
LWPOLYLINE
  5
295E8
330
295D2
100
AcDbEntity
  8
Pel_Muntin_AS
100
AcDbPolyline
 90
        4
 70
     1
 43
0.0
 10
20.375
 20
37.72460000000001
 10
12.938
 20
37.72460000000001
 10
12.938
 20
27.2754
 10
20.375
 20
27.2754
  0
LWPOLYLINE
  5
295E9
330
295D2
100
AcDbEntity
  8
Pel_Muntin_AS
100
AcDbPolyline
 90
        4
 70
     1
 43
0.0
 10
12.062
 20
37.72460000000001
 10
4.625000000000001
 20
37.72460000000001
 10
4.625000000000001
 20
27.2754
 10
12.062
 20
27.2754
  0
LWPOLYLINE
  5
295EA
330
295D2
100
AcDbEntity
  8
Pel_Muntin_AS
100
AcDbPolyline
 90
        4
 70
     1
 43
0.0
 10
45.375
 20
49.04980000000001
 10
37.938
 20
49.04980000000001
 10
37.938
 20
38.6006
 10
45.375
 20
38.6006
  0
LWPOLYLINE
  5
295EB
330
295D2
100
AcDbEntity
  8
Pel_Muntin_AS
100
AcDbPolyline
 90
        4
 70
     1
 43
0.0
 10
37.062
 20
49.04980000000001
 10
29.625
 20
49.04980000000001
 10
29.625
 20
38.6006
 10
37.062
 20
38.6006
  0
LWPOLYLINE
  5
295EC
330
295D2
100
AcDbEntity
  8
Pel_Muntin_AS
100
AcDbPolyline
 90
        4
 70
     1
 43
0.0
 10
20.375
 20
49.04980000000001
 10
12.938
 20
49.04980000000001
 10
12.938
 20
38.6006
 10
20.375
 20
38.6006
  0
LWPOLYLINE
  5
295ED
330
295D2
100
AcDbEntity
  8
Pel_Muntin_AS
100
AcDbPolyline
 90
        4
 70
     1
 43
0.0
 10
12.062
 20
49.04980000000001
 10
4.625000000000001
 20
49.04980000000001
 10
4.625000000000001
 20
38.6006
 10
12.062
 20
38.6006
  0
ENDBLK
  5
295F1
330
295D2
100
AcDbEntity
  8
0
100
AcDbBlockEnd
  0
BLOCK
  5
29611
330
295F3
100
AcDbEntity
  8
0
100
AcDbBlockBegin
  2
ASPCICM2-2571T
 70
     0
 10
0.0
 20
0.0
 30
0.0
  3
ASPCICM2-2571T
  1

  0
LWPOLYLINE
  5
295F4
330
295F3
100
AcDbEntity
  8
Pel_Frame_Outside
100
AcDbPolyline
 90
        8
 70
     1
 43
0.0
 10
25.0
 20
0.0
 10
25.0
 20
71.00000099999999
 10
0.0
 20
71.00000099999999
 10
0.0
 20
0.0
 10
25.0
 20
0.0
 10
25.0
 20
71.00000099999999
 10
50.0
 20
71.00000099999999
 10
50.0
 20
0.0
  0
LWPOLYLINE
  5
295F5
330
295F3
100
AcDbEntity
  8
Pel_Sash_Outside
100
AcDbPolyline
 90
        4
 70
     1
 43
0.0
 10
26.625
 20
1.625
 10
26.625
 20
69.375001
 10
48.375
 20
69.375001
 10
48.375
 20
1.625
  0
LWPOLYLINE
  5
295F6
330
295F3
100
AcDbEntity
  8
Pel_Sash_Inside
100
AcDbPolyline
 90
        4
 70
     1
 43
0.0
 10
29.625
 20
4.625
 10
29.625
 20
66.375001
 10
45.375
 20
66.375001
 10
45.375
 20
4.625
  0
LWPOLYLINE
  5
295F7
330
295F3
100
AcDbEntity
  8
Pel_Hinging
 48
6.0
100
AcDbPolyline
 90
        3
 70
     0
 43
0.0
 10
26.625
 20
1.625
 10
48.375
 20
35.5000005
 10
26.625
 20
69.375001
  0
LWPOLYLINE
  5
295F8
330
295F3
100
AcDbEntity
  8
Pel_Sash_Outside
100
AcDbPolyline
 90
        4
 70
     1
 43
0.0
 10
1.625
 20
69.375001
 10
23.375
 20
69.375001
 10
23.375
 20
1.625
 10
1.625
 20
1.625
  0
LWPOLYLINE
  5
295F9
330
295F3
100
AcDbEntity
  8
Pel_Sash_Inside
100
AcDbPolyline
 90
        4
 70
     1
 43
0.0
 10
20.375
 20
66.375001
 10
20.375
 20
4.625
 10
4.625
 20
4.625
 10
4.625
 20
66.375001
  0
LWPOLYLINE
  5
295FA
330
295F3
100
AcDbEntity
  8
Pel_Hinging
 48
6.0
100
AcDbPolyline
 90
        3
 70
     0
 43
0.0
 10
23.375
 20
1.625
 10
1.625
 20
35.5000005
 10
23.375
 20
69.375001
  0
LWPOLYLINE
  5
295FB
330
295F3
100
AcDbEntity
  8
Pel_Muntin_AS
100
AcDbPolyline
 90
        4
 70
     1
 43
0.0
 10
45.375
 20
66.375001
 10
37.938
 20
66.375001
 10
37.938
 20
54.725801
 10
45.375
 20
54.725801
  0
LWPOLYLINE
  5
295FC
330
295F3
100
AcDbEntity
  8
Pel_Muntin_AS
100
AcDbPolyline
 90
        4
 70
     1
 43
0.0
 10
37.062
 20
66.375001
 10
29.625
 20
66.375001
 10
29.625
 20
54.725801
 10
37.062
 20
54.725801
  0
LWPOLYLINE
  5
295FD
330
295F3
100
AcDbEntity
  8
Pel_Muntin_AS
100
AcDbPolyline
 90
        4
 70
     1
 43
0.0
 10
45.375
 20
16.274201
 10
37.938
 20
16.274201
 10
37.938
 20
4.625
 10
45.375
 20
4.625
  0
LWPOLYLINE
  5
295FE
330
295F3
100
AcDbEntity
  8
Pel_Muntin_AS
100
AcDbPolyline
 90
        4
 70
     1
 43
0.0
 10
37.062
 20
16.274201
 10
29.625
 20
16.274201
 10
29.625
 20
4.625
 10
37.062
 20
4.625
  0
LWPOLYLINE
  5
295FF
330
295F3
100
AcDbEntity
  8
Pel_Muntin_AS
100
AcDbPolyline
 90
        4
 70
     1
 43
0.0
 10
20.375
 20
16.274201
 10
12.938
 20
16.274201
 10
12.938
 20
4.625
 10
20.375
 20
4.625
  0
LWPOLYLINE
  5
29600
330
295F3
100
AcDbEntity
  8
Pel_Muntin_AS
100
AcDbPolyline
 90
        4
 70
     1
 43
0.0
 10
20.375
 20
66.375001
 10
12.938
 20
66.375001
 10
12.938
 20
54.725801
 10
20.375
 20
54.725801
  0
LWPOLYLINE
  5
29601
330
295F3
100
AcDbEntity
  8
Pel_Muntin_AS
100
AcDbPolyline
 90
        4
 70
     1
 43
0.0
 10
12.062
 20
16.274201
 10
4.624999999999999
 20
16.274201
 10
4.625
 20
4.625
 10
12.062
 20
4.625
  0
LWPOLYLINE
  5
29602
330
295F3
100
AcDbEntity
  8
Pel_Muntin_AS
100
AcDbPolyline
 90
        4
 70
     1
 43
0.0
 10
12.062
 20
66.375001
 10
4.625
 20
66.375001
 10
4.625
 20
54.725801
 10
12.062
 20
54.725801
  0
LWPOLYLINE
  5
29603
330
295F3
100
AcDbEntity
  8
Pel_Muntin_AS
100
AcDbPolyline
 90
        4
 70
     1
 43
0.0
 10
45.375
 20
28.79940100000001
 10
37.938
 20
28.79940100000001
 10
37.938
 20
17.150201
 10
45.375
 20
17.150201
  0
LWPOLYLINE
  5
29604
330
295F3
100
AcDbEntity
  8
Pel_Muntin_AS
100
AcDbPolyline
 90
        4
 70
     1
 43
0.0
 10
37.062
 20
28.79940100000001
 10
29.625
 20
28.79940100000001
 10
29.625
 20
17.150201
 10
37.062
 20
17.150201
  0
LWPOLYLINE
  5
29605
330
295F3
100
AcDbEntity
  8
Pel_Muntin_AS
100
AcDbPolyline
 90
        4
 70
     1
 43
0.0
 10
20.375
 20
28.79940100000001
 10
12.938
 20
28.79940100000001
 10
12.938
 20
17.150201
 10
20.375
 20
17.150201
  0
LWPOLYLINE
  5
29606
330
295F3
100
AcDbEntity
  8
Pel_Muntin_AS
100
AcDbPolyline
 90
        4
 70
     1
 43
0.0
 10
12.062
 20
28.79940100000001
 10
4.625
 20
28.79940100000001
 10
4.624999999999999
 20
17.150201
 10
12.062
 20
17.150201
  0
LWPOLYLINE
  5
29607
330
295F3
100
AcDbEntity
  8
Pel_Muntin_AS
100
AcDbPolyline
 90
        4
 70
     1
 43
0.0
 10
45.375
 20
41.324601
 10
37.938
 20
41.324601
 10
37.938
 20
29.67540100000001
 10
45.375
 20
29.67540100000001
  0
LWPOLYLINE
  5
29608
330
295F3
100
AcDbEntity
  8
Pel_Muntin_AS
100
AcDbPolyline
 90
        4
 70
     1
 43
0.0
 10
37.062
 20
41.324601
 10
29.625
 20
41.324601
 10
29.625
 20
29.67540100000001
 10
37.062
 20
29.67540100000001
  0
LWPOLYLINE
  5
29609
330
295F3
100
AcDbEntity
  8
Pel_Muntin_AS
100
AcDbPolyline
 90
        4
 70
     1
 43
0.0
 10
20.375
 20
41.324601
 10
12.938
 20
41.324601
 10
12.938
 20
29.67540100000001
 10
20.375
 20
29.67540100000001
  0
LWPOLYLINE
  5
2960A
330
295F3
100
AcDbEntity
  8
Pel_Muntin_AS
100
AcDbPolyline
 90
        4
 70
     1
 43
0.0
 10
12.062
 20
41.324601
 10
4.625
 20
41.324601
 10
4.625
 20
29.67540100000001
 10
12.062
 20
29.67540100000001
  0
LWPOLYLINE
  5
2960B
330
295F3
100
AcDbEntity
  8
Pel_Muntin_AS
100
AcDbPolyline
 90
        4
 70
     1
 43
0.0
 10
45.375
 20
53.84980099999999
 10
37.938
 20
53.84980099999999
 10
37.938
 20
42.200601
 10
45.375
 20
42.200601
  0
LWPOLYLINE
  5
2960C
330
295F3
100
AcDbEntity
  8
Pel_Muntin_AS
100
AcDbPolyline
 90
        4
 70
     1
 43
0.0
 10
37.062
 20
53.84980099999999
 10
29.625
 20
53.84980099999999
 10
29.625
 20
42.200601
 10
37.062
 20
42.200601
  0
LWPOLYLINE
  5
2960D
330
295F3
100
AcDbEntity
  8
Pel_Muntin_AS
100
AcDbPolyline
 90
        4
 70
     1
 43
0.0
 10
20.375
 20
53.84980099999999
 10
12.938
 20
53.84980099999999
 10
12.938
 20
42.200601
 10
20.375
 20
42.200601
  0
LWPOLYLINE
  5
2960E
330
295F3
100
AcDbEntity
  8
Pel_Muntin_AS
100
AcDbPolyline
 90
        4
 70
     1
 43
0.0
 10
12.062
 20
53.84980099999999
 10
4.625
 20
53.84980099999999
 10
4.625
 20
42.200601
 10
12.062
 20
42.200601
  0
ENDBLK
  5
29612
330
295F3
100
AcDbEntity
  8
0
100
AcDbBlockEnd
  0
BLOCK
  5
29636
330
29614
100
AcDbEntity
  8
0
100
AcDbBlockBegin
  2
ASPCICM2-2573T
 70
     0
 10
0.0
 20
0.0
 30
0.0
  3
ASPCICM2-2573T
  1

  0
LWPOLYLINE
  5
29615
330
29614
100
AcDbEntity
  8
Pel_Frame_Outside
100
AcDbPolyline
 90
        8
 70
     1
 43
0.0
 10
25.0
 20
0.0
 10
25.0
 20
72.999999
 10
0.0
 20
72.999999
 10
0.0
 20
0.0
 10
25.0
 20
0.0
 10
25.0
 20
72.999999
 10
50.0
 20
72.999999
 10
50.0
 20
0.0
  0
LWPOLYLINE
  5
29616
330
29614
100
AcDbEntity
  8
Pel_Sash_Outside
100
AcDbPolyline
 90
        4
 70
     1
 43
0.0
 10
26.625
 20
1.625
 10
26.625
 20
71.374999
 10
48.375
 20
71.374999
 10
48.375
 20
1.625
  0
LWPOLYLINE
  5
29617
330
29614
100
AcDbEntity
  8
Pel_Sash_Inside
100
AcDbPolyline
 90
        4
 70
     1
 43
0.0
 10
29.625
 20
4.625
 10
29.625
 20
68.374999
 10
45.375
 20
68.374999
 10
45.375
 20
4.625
  0
LWPOLYLINE
  5
29618
330
29614
100
AcDbEntity
  8
Pel_Hinging
 48
6.0
100
AcDbPolyline
 90
        3
 70
     0
 43
0.0
 10
26.625
 20
1.625
 10
48.375
 20
36.4999995
 10
26.625
 20
71.374999
  0
LWPOLYLINE
  5
29619
330
29614
100
AcDbEntity
  8
Pel_Sash_Outside
100
AcDbPolyline
 90
        4
 70
     1
 43
0.0
 10
1.625
 20
71.374999
 10
23.375
 20
71.374999
 10
23.375
 20
1.625
 10
1.625
 20
1.625
  0
LWPOLYLINE
  5
2961A
330
29614
100
AcDbEntity
  8
Pel_Sash_Inside
100
AcDbPolyline
 90
        4
 70
     1
 43
0.0
 10
20.375
 20
68.374999
 10
20.375
 20
4.625
 10
4.625
 20
4.625
 10
4.625
 20
68.374999
  0
LWPOLYLINE
  5
2961B
330
29614
100
AcDbEntity
  8
Pel_Hinging
 48
6.0
100
AcDbPolyline
 90
        3
 70
     0
 43
0.0
 10
23.375
 20
1.625
 10
1.625
 20
36.4999995
 10
23.375
 20
71.374999
  0
LWPOLYLINE
  5
2961C
330
29614
100
AcDbEntity
  8
Pel_Muntin_AS
100
AcDbPolyline
 90
        4
 70
     1
 43
0.0
 10
45.375
 20
68.374999
 10
37.938
 20
68.374999
 10
37.938
 20
58.47999899999999
 10
45.375
 20
58.47999899999999
  0
LWPOLYLINE
  5
2961D
330
29614
100
AcDbEntity
  8
Pel_Muntin_AS
100
AcDbPolyline
 90
        4
 70
     1
 43
0.0
 10
37.062
 20
68.374999
 10
29.625
 20
68.374999
 10
29.625
 20
58.47999899999999
 10
37.062
 20
58.47999899999999
  0
LWPOLYLINE
  5
2961E
330
29614
100
AcDbEntity
  8
Pel_Muntin_AS
100
AcDbPolyline
 90
        4
 70
     1
 43
0.0
 10
45.375
 20
14.519999
 10
37.938
 20
14.519999
 10
37.938
 20
4.625
 10
45.375
 20
4.625
  0
LWPOLYLINE
  5
2961F
330
29614
100
AcDbEntity
  8
Pel_Muntin_AS
100
AcDbPolyline
 90
        4
 70
     1
 43
0.0
 10
37.062
 20
14.519999
 10
29.625
 20
14.519999
 10
29.625
 20
4.625
 10
37.062
 20
4.625
  0
LWPOLYLINE
  5
29620
330
29614
100
AcDbEntity
  8
Pel_Muntin_AS
100
AcDbPolyline
 90
        4
 70
     1
 43
0.0
 10
20.375
 20
14.519999
 10
12.938
 20
14.519999
 10
12.938
 20
4.625
 10
20.375
 20
4.625
  0
LWPOLYLINE
  5
29621
330
29614
100
AcDbEntity
  8
Pel_Muntin_AS
100
AcDbPolyline
 90
        4
 70
     1
 43
0.0
 10
20.375
 20
68.374999
 10
12.938
 20
68.374999
 10
12.938
 20
58.47999899999999
 10
20.375
 20
58.47999899999999
  0
LWPOLYLINE
  5
29622
330
29614
100
AcDbEntity
  8
Pel_Muntin_AS
100
AcDbPolyline
 90
        4
 70
     1
 43
0.0
 10
12.062
 20
14.519999
 10
4.625
 20
14.519999
 10
4.625
 20
4.625
 10
12.062
 20
4.625
  0
LWPOLYLINE
  5
29623
330
29614
100
AcDbEntity
  8
Pel_Muntin_AS
100
AcDbPolyline
 90
        4
 70
     1
 43
0.0
 10
12.062
 20
68.374999
 10
4.625
 20
68.374999
 10
4.625
 20
58.47999899999999
 10
12.062
 20
58.47999899999999
  0
LWPOLYLINE
  5
29624
330
29614
100
AcDbEntity
  8
Pel_Muntin_AS
100
AcDbPolyline
 90
        4
 70
     1
 43
0.0
 10
45.375
 20
57.60399900000002
 10
37.938
 20
57.60399900000002
 10
37.938
 20
47.708999
 10
45.375
 20
47.708999
  0
LWPOLYLINE
  5
29625
330
29614
100
AcDbEntity
  8
Pel_Muntin_AS
100
AcDbPolyline
 90
        4
 70
     1
 43
0.0
 10
37.062
 20
57.60399900000002
 10
29.625
 20
57.60399900000002
 10
29.625
 20
47.708999
 10
37.062
 20
47.708999
  0
LWPOLYLINE
  5
29626
330
29614
100
AcDbEntity
  8
Pel_Muntin_AS
100
AcDbPolyline
 90
        4
 70
     1
 43
0.0
 10
20.375
 20
57.60399900000002
 10
12.938
 20
57.60399900000002
 10
12.938
 20
47.708999
 10
20.375
 20
47.708999
  0
LWPOLYLINE
  5
29627
330
29614
100
AcDbEntity
  8
Pel_Muntin_AS
100
AcDbPolyline
 90
        4
 70
     1
 43
0.0
 10
12.062
 20
57.60399900000002
 10
4.625
 20
57.60399900000002
 10
4.625
 20
47.708999
 10
12.062
 20
47.708999
  0
LWPOLYLINE
  5
29628
330
29614
100
AcDbEntity
  8
Pel_Muntin_AS
100
AcDbPolyline
 90
        4
 70
     1
 43
0.0
 10
45.375
 20
46.83299900000001
 10
37.938
 20
46.83299900000001
 10
37.938
 20
36.93799900000001
 10
45.375
 20
36.93799900000001
  0
LWPOLYLINE
  5
29629
330
29614
100
AcDbEntity
  8
Pel_Muntin_AS
100
AcDbPolyline
 90
        4
 70
     1
 43
0.0
 10
37.062
 20
46.83299900000001
 10
29.625
 20
46.83299900000001
 10
29.625
 20
36.93799900000001
 10
37.062
 20
36.93799900000001
  0
LWPOLYLINE
  5
2962A
330
29614
100
AcDbEntity
  8
Pel_Muntin_AS
100
AcDbPolyline
 90
        4
 70
     1
 43
0.0
 10
20.375
 20
46.83299900000001
 10
12.938
 20
46.83299900000001
 10
12.938
 20
36.93799900000001
 10
20.375
 20
36.93799900000001
  0
LWPOLYLINE
  5
2962B
330
29614
100
AcDbEntity
  8
Pel_Muntin_AS
100
AcDbPolyline
 90
        4
 70
     1
 43
0.0
 10
12.062
 20
46.83299900000001
 10
4.625
 20
46.83299900000001
 10
4.625
 20
36.93799900000001
 10
12.062
 20
36.93799900000001
  0
LWPOLYLINE
  5
2962C
330
29614
100
AcDbEntity
  8
Pel_Muntin_AS
100
AcDbPolyline
 90
        4
 70
     1
 43
0.0
 10
45.375
 20
36.06199900000002
 10
37.938
 20
36.06199900000002
 10
37.938
 20
26.166999
 10
45.375
 20
26.166999
  0
LWPOLYLINE
  5
2962D
330
29614
100
AcDbEntity
  8
Pel_Muntin_AS
100
AcDbPolyline
 90
        4
 70
     1
 43
0.0
 10
37.062
 20
36.06199900000002
 10
29.625
 20
36.06199900000002
 10
29.625
 20
26.166999
 10
37.062
 20
26.166999
  0
LWPOLYLINE
  5
2962E
330
29614
100
AcDbEntity
  8
Pel_Muntin_AS
100
AcDbPolyline
 90
        4
 70
     1
 43
0.0
 10
20.375
 20
36.06199900000002
 10
12.938
 20
36.06199900000002
 10
12.938
 20
26.166999
 10
20.375
 20
26.166999
  0
LWPOLYLINE
  5
2962F
330
29614
100
AcDbEntity
  8
Pel_Muntin_AS
100
AcDbPolyline
 90
        4
 70
     1
 43
0.0
 10
12.062
 20
36.06199900000002
 10
4.625
 20
36.06199900000002
 10
4.625
 20
26.166999
 10
12.062
 20
26.166999
  0
LWPOLYLINE
  5
29630
330
29614
100
AcDbEntity
  8
Pel_Muntin_AS
100
AcDbPolyline
 90
        4
 70
     1
 43
0.0
 10
45.375
 20
25.29099900000002
 10
37.938
 20
25.29099900000002
 10
37.938
 20
15.395999
 10
45.375
 20
15.395999
  0
LWPOLYLINE
  5
29631
330
29614
100
AcDbEntity
  8
Pel_Muntin_AS
100
AcDbPolyline
 90
        4
 70
     1
 43
0.0
 10
37.062
 20
25.29099900000002
 10
29.625
 20
25.29099900000002
 10
29.625
 20
15.395999
 10
37.062
 20
15.395999
  0
LWPOLYLINE
  5
29632
330
29614
100
AcDbEntity
  8
Pel_Muntin_AS
100
AcDbPolyline
 90
        4
 70
     1
 43
0.0
 10
20.375
 20
25.29099900000002
 10
12.938
 20
25.29099900000002
 10
12.938
 20
15.395999
 10
20.375
 20
15.395999
  0
LWPOLYLINE
  5
29633
330
29614
100
AcDbEntity
  8
Pel_Muntin_AS
100
AcDbPolyline
 90
        4
 70
     1
 43
0.0
 10
12.062
 20
25.29099900000002
 10
4.625
 20
25.29099900000002
 10
4.625
 20
15.395999
 10
12.062
 20
15.395999
  0
ENDBLK
  5
29637
330
29614
100
AcDbEntity
  8
0
100
AcDbBlockEnd
  0
ENDSEC
  0
SECTION
  2
ENTITIES
  0
INSERT
  5
1F3BE
330
1F
100
AcDbEntity
  8
0
100
AcDbBlockReference
  2
E
 10
462.060703022384
 20
400.2176160698367
 30
0.0
 41
96.0
 42
96.0
 43
96.0
  0
INSERT
  5
1F3C9
330
1F
100
AcDbEntity
  8
0
100
AcDbBlockReference
  2
E
 10
462.060703022384
 20
552.2176160698367
 30
0.0
 41
96.0
 42
96.0
 43
96.0
  0
INSERT
  5
1F3CB
330
1F
100
AcDbEntity
  8
0
100
AcDbBlockReference
  2
E
 10
462.060703022384
 20
479.2176160698367
 30
0.0
 41
96.0
 42
96.0
 43
96.0
  0
INSERT
  5
1F3CC
330
1F
100
AcDbEntity
  8
0
100
AcDbBlockReference
  2
E
 10
462.060703022384
 20
315.2176160698367
 30
0.0
 41
96.0
 42
96.0
 43
96.0
  0
INSERT
  5
1F3CE
330
1F
100
AcDbEntity
  8
0
100
AcDbBlockReference
  2
E
 10
462.060703022384
 20
224.2176160698367
 30
0.0
 41
96.0
 42
96.0
 43
96.0
  0
MTEXT
  5
1F3D9
330
1F
100
AcDbEntity
  8
0
100
AcDbMText
 10
135.0000000000001
 20
809.6716960177392
 30
0.0
 40
9.375
 41
141.053015960395
 71
     1
 72
     5
  1
Vent and Fixed Units
 73
     1
 44
1.0
1001
ACAD
1000
MTEXTBEGIN
1070
    73
1070
     1
1070
    44
1040
1.0
1070
    74
1070
     0
1000
MTEXTEND
  0
MTEXT
  5
1F423
330
1F
100
AcDbEntity
  8
0
100
AcDbMText
 10
433.0607030223839
 20
677.2176160698371
 30
0.0
 40
6.75
 41
25.0
 71
     2
 72
     5
  1
5835
 73
     1
 44
1.0
1001
ACAD
1000
MTEXTBEGIN
1070
    73
1070
     1
1070
    44
1040
1.0
1070
    74
1070
     0
1000
MTEXTEND
  0
MTEXT
  5
1F424
330
1F
100
AcDbEntity
  8
0
100
AcDbMText
 10
433.0607030223839
 20
616.2176160698371
 30
0.0
 40
6.75
 41
25.0
 71
     2
 72
     5
  1
5841
 73
     1
 44
1.0
1001
ACAD
1000
MTEXTBEGIN
1070
    73
1070
     1
1070
    44
1040
1.0
1070
    74
1070
     0
1000
MTEXTEND
  0
MTEXT
  5
1F425
330
1F
100
AcDbEntity
  8
0
100
AcDbMText
 10
433.0607030223839
 20
549.2176160698371
 30
0.0
 40
6.75
 41
25.0
 71
     2
 72
     5
  1
5847
 73
     1
 44
1.0
1001
ACAD
1000
MTEXTBEGIN
1070
    73
1070
     1
1070
    44
1040
1.0
1070
    74
1070
     0
1000
MTEXTEND
  0
MTEXT
  5
1F426
330
1F
100
AcDbEntity
  8
0
100
AcDbMText
 10
433.0607030223839
 20
476.2176160698372
 30
0.0
 40
6.75
 41
25.0
 71
     2
 72
     5
  1
5853
 73
     1
 44
1.0
1001
ACAD
1000
MTEXTBEGIN
1070
    73
1070
     1
1070
    44
1040
1.0
1070
    74
1070
     0
1000
MTEXTEND
  0
MTEXT
  5
1F427
330
1F
100
AcDbEntity
  8
0
100
AcDbMText
 10
433.0607030223839
 20
397.2176160698372
 30
0.0
 40
6.75
 41
25.0
 71
     2
 72
     5
  1
5859
 73
     1
 44
1.0
1001
ACAD
1000
MTEXTBEGIN
1070
    73
1070
     1
1070
    44
1040
1.0
1070
    74
1070
     0
1000
MTEXTEND
  0
MTEXT
  5
1F428
330
1F
100
AcDbEntity
  8
0
100
AcDbMText
 10
433.0607030223839
 20
312.2176160698372
 30
0.0
 40
6.75
 41
25.0
 71
     2
 72
     5
  1
5865
 73
     1
 44
1.0
1001
ACAD
1000
MTEXTBEGIN
1070
    73
1070
     1
1070
    44
1040
1.0
1070
    74
1070
     0
1000
MTEXTEND
  0
MTEXT
  5
1F429
330
1F
100
AcDbEntity
  8
0
100
AcDbMText
 10
433.0607030223839
 20
221.2176160698372
 30
0.0
 40
6.75
 41
25.0
 71
     2
 72
     5
  1
5871
 73
     1
 44
1.0
1001
ACAD
1000
MTEXTBEGIN
1070
    73
1070
     1
1070
    44
1040
1.0
1070
    74
1070
     0
1000
MTEXTEND
  0
MTEXT
  5
1F42C
330
1F
100
AcDbEntity
  8
0
100
AcDbMText
 10
354.060703022384
 20
677.2176160698371
 30
0.0
 40
6.75
 41
25.0
 71
     2
 72
     5
  1
5035
 73
     1
 44
1.0
1001
ACAD
1000
MTEXTBEGIN
1070
    73
1070
     1
1070
    44
1040
1.0
1070
    74
1070
     0
1000
MTEXTEND
  0
MTEXT
  5
1F42D
330
1F
100
AcDbEntity
  8
0
100
AcDbMText
 10
354.060703022384
 20
616.2176160698371
 30
0.0
 40
6.75
 41
25.0
 71
     2
 72
     5
  1
5041
 73
     1
 44
1.0
1001
ACAD
1000
MTEXTBEGIN
1070
    73
1070
     1
1070
    44
1040
1.0
1070
    74
1070
     0
1000
MTEXTEND
  0
MTEXT
  5
1F42E
330
1F
100
AcDbEntity
  8
0
100
AcDbMText
 10
354.060703022384
 20
549.2176160698371
 30
0.0
 40
6.75
 41
25.0
 71
     2
 72
     5
  1
5047
 73
     1
 44
1.0
1001
ACAD
1000
MTEXTBEGIN
1070
    73
1070
     1
1070
    44
1040
1.0
1070
    74
1070
     0
1000
MTEXTEND
  0
MTEXT
  5
1F42F
330
1F
100
AcDbEntity
  8
0
100
AcDbMText
 10
354.060703022384
 20
476.2176160698372
 30
0.0
 40
6.75
 41
25.0
 71
     2
 72
     5
  1
5053
 73
     1
 44
1.0
1001
ACAD
1000
MTEXTBEGIN
1070
    73
1070
     1
1070
    44
1040
1.0
1070
    74
1070
     0
1000
MTEXTEND
  0
MTEXT
  5
1F430
330
1F
100
AcDbEntity
  8
0
100
AcDbMText
 10
354.060703022384
 20
397.2176160698372
 30
0.0
 40
6.75
 41
25.0
 71
     2
 72
     5
  1
5059
 73
     1
 44
1.0
1001
ACAD
1000
MTEXTBEGIN
1070
    73
1070
     1
1070
    44
1040
1.0
1070
    74
1070
     0
1000
MTEXTEND
  0
MTEXT
  5
1F431
330
1F
100
AcDbEntity
  8
0
100
AcDbMText
 10
354.060703022384
 20
312.2176160698372
 30
0.0
 40
6.75
 41
25.0
 71
     2
 72
     5
  1
5065
 73
     1
 44
1.0
1001
ACAD
1000
MTEXTBEGIN
1070
    73
1070
     1
1070
    44
1040
1.0
1070
    74
1070
     0
1000
MTEXTEND
  0
MTEXT
  5
1F432
330
1F
100
AcDbEntity
  8
0
100
AcDbMText
 10
354.060703022384
 20
221.2176160698372
 30
0.0
 40
6.75
 41
25.0
 71
     2
 72
     5
  1
5071
 73
     1
 44
1.0
1001
ACAD
1000
MTEXTBEGIN
1070
    73
1070
     1
1070
    44
1040
1.0
1070
    74
1070
     0
1000
MTEXTEND
  0
MTEXT
  5
1F435
330
1F
100
AcDbEntity
  8
0
100
AcDbMText
 10
281.060703022384
 20
677.2176160698371
 30
0.0
 40
6.75
 41
25.0
 71
     2
 72
     5
  1
4635
 73
     1
 44
1.0
1001
ACAD
1000
MTEXTBEGIN
1070
    73
1070
     1
1070
    44
1040
1.0
1070
    74
1070
     0
1000
MTEXTEND
  0
MTEXT
  5
1F436
330
1F
100
AcDbEntity
  8
0
100
AcDbMText
 10
281.060703022384
 20
616.2176160698371
 30
0.0
 40
6.75
 41
25.0
 71
     2
 72
     5
  1
4641
 73
     1
 44
1.0
1001
ACAD
1000
MTEXTBEGIN
1070
    73
1070
     1
1070
    44
1040
1.0
1070
    74
1070
     0
1000
MTEXTEND
  0
MTEXT
  5
1F437
330
1F
100
AcDbEntity
  8
0
100
AcDbMText
 10
281.060703022384
 20
549.2176160698371
 30
0.0
 40
6.75
 41
25.0
 71
     2
 72
     5
  1
4647
 73
     1
 44
1.0
1001
ACAD
1000
MTEXTBEGIN
1070
    73
1070
     1
1070
    44
1040
1.0
1070
    74
1070
     0
1000
MTEXTEND
  0
MTEXT
  5
1F438
330
1F
100
AcDbEntity
  8
0
100
AcDbMText
 10
281.060703022384
 20
476.2176160698372
 30
0.0
 40
6.75
 41
25.0
 71
     2
 72
     5
  1
4653
 73
     1
 44
1.0
1001
ACAD
1000
MTEXTBEGIN
1070
    73
1070
     1
1070
    44
1040
1.0
1070
    74
1070
     0
1000
MTEXTEND
  0
MTEXT
  5
1F439
330
1F
100
AcDbEntity
  8
0
100
AcDbMText
 10
281.060703022384
 20
397.2176160698372
 30
0.0
 40
6.75
 41
25.0
 71
     2
 72
     5
  1
4659
 73
     1
 44
1.0
1001
ACAD
1000
MTEXTBEGIN
1070
    73
1070
     1
1070
    44
1040
1.0
1070
    74
1070
     0
1000
MTEXTEND
  0
MTEXT
  5
1F43A
330
1F
100
AcDbEntity
  8
0
100
AcDbMText
 10
281.060703022384
 20
312.2176160698372
 30
0.0
 40
6.75
 41
25.0
 71
     2
 72
     5
  1
4665
 73
     1
 44
1.0
1001
ACAD
1000
MTEXTBEGIN
1070
    73
1070
     1
1070
    44
1040
1.0
1070
    74
1070
     0
1000
MTEXTEND
  0
MTEXT
  5
1F43C
330
1F
100
AcDbEntity
  8
0
100
AcDbMText
 10
212.060703022384
 20
312.2176160698372
 30
0.0
 40
6.75
 41
25.0
 71
     2
 72
     5
  1
4265
 73
     1
 44
1.0
1001
ACAD
1000
MTEXTBEGIN
1070
    73
1070
     1
1070
    44
1040
1.0
1070
    74
1070
     0
1000
MTEXTEND
  0
MTEXT
  5
1F43D
330
1F
100
AcDbEntity
  8
0
100
AcDbMText
 10
212.060703022384
 20
397.2176160698372
 30
0.0
 40
6.75
 41
25.0
 71
     2
 72
     5
  1
4259
 73
     1
 44
1.0
1001
ACAD
1000
MTEXTBEGIN
1070
    73
1070
     1
1070
    44
1040
1.0
1070
    74
1070
     0
1000
MTEXTEND
  0
MTEXT
  5
1F43E
330
1F
100
AcDbEntity
  8
0
100
AcDbMText
 10
212.060703022384
 20
476.2176160698372
 30
0.0
 40
6.75
 41
25.0
 71
     2
 72
     5
  1
4253
 73
     1
 44
1.0
1001
ACAD
1000
MTEXTBEGIN
1070
    73
1070
     1
1070
    44
1040
1.0
1070
    74
1070
     0
1000
MTEXTEND
  0
MTEXT
  5
1F43F
330
1F
100
AcDbEntity
  8
0
100
AcDbMText
 10
212.060703022384
 20
549.2176160698371
 30
0.0
 40
6.75
 41
25.0
 71
     2
 72
     5
  1
4247
 73
     1
 44
1.0
1001
ACAD
1000
MTEXTBEGIN
1070
    73
1070
     1
1070
    44
1040
1.0
1070
    74
1070
     0
1000
MTEXTEND
  0
MTEXT
  5
1F440
330
1F
100
AcDbEntity
  8
0
100
AcDbMText
 10
212.060703022384
 20
616.2176160698371
 30
0.0
 40
6.75
 41
25.0
 71
     2
 72
     5
  1
4241
 73
     1
 44
1.0
1001
ACAD
1000
MTEXTBEGIN
1070
    73
1070
     1
1070
    44
1040
1.0
1070
    74
1070
     0
1000
MTEXTEND
  0
MTEXT
  5
1F441
330
1F
100
AcDbEntity
  8
0
100
AcDbMText
 10
212.060703022384
 20
677.2176160698371
 30
0.0
 40
6.75
 41
25.0
 71
     2
 72
     5
  1
4235
 73
     1
 44
1.0
1001
ACAD
1000
MTEXTBEGIN
1070
    73
1070
     1
1070
    44
1040
1.0
1070
    74
1070
     0
1000
MTEXTEND
  0
TEXT
  5
1F450
330
1F
100
AcDbEntity
  8
0
100
AcDbText
 10
420.5913987931888
 20
756.5836433261516
 30
0.0
 40
7.0
  1
4' 10
 72
     4
 11
431.0412623675408
 21
760.0382817981844
 31
0.0
100
AcDbText
  0
TEXT
  5
1F451
330
1F
100
AcDbEntity
  8
0
100
AcDbText
 10
420.5913987931889
 20
740.0836433261514
 30
0.0
 40
7.0
  1
4' 10"
 72
     4
 11
432.7769376744986
 21
743.5382817981842
 31
0.0
100
AcDbText
  0
TEXT
  5
1F452
330
1F
100
AcDbEntity
  8
0
100
AcDbText
 10
419.8154779200647
 20
783.2086433261516
 30
0.0
 40
6.0
  1
(1 492)
 72
     4
 11
433.0944683702694
 21
785.3778111296987
 31
0.0
100
AcDbText
  0
TEXT
  5
1F453
330
1F
100
AcDbEntity
  8
0
100
AcDbText
 10
419.8154779200647
 20
773.4586433261516
 30
0.0
 40
6.0
  1
(1 473)
 72
     4
 11
433.0944683702694
 21
775.6278111296987
 31
0.0
100
AcDbText
  0
TEXT
  5
1F458
330
1F
100
AcDbEntity
  8
0
100
AcDbText
 10
198.8154779200647
 20
773.4586433261516
 30
0.0
 40
6.0
  1
(1 067)
 72
     4
 11
212.0944683702694
 21
775.6278111296987
 31
0.0
100
AcDbText
  0
TEXT
  5
1F459
330
1F
100
AcDbEntity
  8
0
100
AcDbText
 10
198.8154779200647
 20
783.2086433261516
 30
0.0
 40
6.0
  1
(1 086)
 72
     4
 11
212.0944683702694
 21
785.3778111296987
 31
0.0
100
AcDbText
  0
TEXT
  5
1F45A
330
1F
100
AcDbEntity
  8
0
100
AcDbText
 10
202.310703022384
 20
740.0860307749921
 30
0.0
 40
7.0
  1
3' 6"
 72
     4
 11
211.7769376744986
 21
743.5382817981844
 31
0.0
100
AcDbText
  0
TEXT
  5
1F45B
330
1F
100
AcDbEntity
  8
0
100
AcDbText
 10
202.310703022384
 20
756.5860307749921
 30
0.0
 40
7.0
  1
3' 6
 72
     4
 11
210.0412623675409
 21
760.0382817981844
 31
0.0
100
AcDbText
  0
TEXT
  5
1F45C
330
1F
100
AcDbEntity
  8
0
100
AcDbText
 10
267.8154779200648
 20
773.4586433261516
 30
0.0
 40
6.0
  1
(1 168)
 72
     4
 11
281.0944683702694
 21
775.6278111296987
 31
0.0
100
AcDbText
  0
TEXT
  5
1F45D
330
1F
100
AcDbEntity
  8
0
100
AcDbText
 10
267.8154779200648
 20
783.2086433261516
 30
0.0
 40
6.0
  1
(1 187)
 72
     4
 11
281.0944683702694
 21
785.3778111296987
 31
0.0
100
AcDbText
  0
TEXT
  5
1F45E
330
1F
100
AcDbEntity
  8
0
100
AcDbText
 10
271.310703022384
 20
740.1433295471612
 30
0.0
 40
7.0
  1
3' 10"
 72
     4
 11
283.4962419036937
 21
743.5955805703535
 31
0.0
100
AcDbText
  0
TEXT
  5
1F45F
330
1F
100
AcDbEntity
  8
0
100
AcDbText
 10
271.310703022384
 20
756.6433295471612
 30
0.0
 40
7.0
  1
3' 10
 72
     4
 11
281.760566596736
 21
760.0955805703535
 31
0.0
100
AcDbText
  0
TEXT
  5
1F460
330
1F
100
AcDbEntity
  8
0
100
AcDbText
 10
340.8154779200648
 20
773.4586433261516
 30
0.0
 40
6.0
  1
(1 270)
 72
     4
 11
354.0944683702694
 21
775.6278111296987
 31
0.0
100
AcDbText
  0
TEXT
  5
1F461
330
1F
100
AcDbEntity
  8
0
100
AcDbText
 10
340.8154779200648
 20
783.1237996899381
 30
0.0
 40
6.0
  1
(1 289)
 72
     4
 11
354.0944683702694
 21
785.2929674934852
 31
0.0
100
AcDbText
  0
TEXT
  5
1F462
330
1F
100
AcDbEntity
  8
0
100
AcDbText
 10
344.310703022384
 20
740.0836433261517
 30
0.0
 40
7.0
  1
4' 2"
 72
     4
 11
353.7769376744986
 21
743.5955805703535
 31
0.0
100
AcDbText
  0
TEXT
  5
1F463
330
1F
100
AcDbEntity
  8
0
100
AcDbText
 10
344.310703022384
 20
756.5836433261516
 30
0.0
 40
7.0
  1
4' 2
 72
     4
 11
352.0412623675408
 21
760.0955805703535
 31
0.0
100
AcDbText
  0
INSERT
  5
1F465
330
1F
100
AcDbEntity
  8
0
100
AcDbBlockReference
  2
341
 10
210.0412623675409
 20
760.0382817981844
 30
0.0
 41
96.0
 42
96.0
 43
96.0
  0
INSERT
  5
1F466
330
1F
100
AcDbEntity
  8
0
100
AcDbBlockReference
  2
342
 10
281.760566596736
 20
760.0955805703535
 30
0.0
 41
96.0
 42
96.0
 43
96.0
  0
INSERT
  5
1F467
330
1F
100
AcDbEntity
  8
0
100
AcDbBlockReference
  2
341
 10
352.0412623675408
 20
760.0955805703535
 30
0.0
 41
96.0
 42
96.0
 43
96.0
  0
TEXT
  5
1F46A
330
1F
100
AcDbEntity
  8
0
100
AcDbText
 10
146.6427970382968
 20
562.4676160698367
 30
0.0
 40
7.0
  1
3' 11
 50
90.0
 72
     4
 11
143.1905460151044
 21
572.9174796441887
 31
0.0
100
AcDbText
  0
TEXT
  5
1F46B
330
1F
100
AcDbEntity
  8
0
100
AcDbText
 10
163.1250000000002
 20
562.4676160698368
 30
0.0
 40
7.0
  1
3' 11"
 50
90.0
 72
     4
 11
159.6727489768078
 21
574.6531549511464
 31
0.0
100
AcDbText
  0
TEXT
  5
1F46C
330
1F
100
AcDbEntity
  8
0
100
AcDbText
 10
120.0000000000001
 20
562.4676160698365
 30
0.0
 40
6.0
  1
(1 446)
 50
90.0
 72
     4
 11
117.830832196453
 21
575.7466065200413
 31
0.0
100
AcDbText
  0
TEXT
  5
1F46D
330
1F
100
AcDbEntity
  8
0
100
AcDbText
 10
129.7500000000001
 20
562.4676160698365
 30
0.0
 40
6.0
  1
(1 194)
 50
90.0
 72
     4
 11
127.580832196453
 21
575.7466065200413
 31
0.0
100
AcDbText
  0
TEXT
  5
1F47E
330
1F
100
AcDbEntity
  8
0
100
AcDbText
 10
129.7500000000001
 20
684.4676160698367
 30
0.0
 40
6.0
  1
(889)
 50
90.0
 72
     4
 11
127.580832196453
 21
694.251381417722
 31
0.0
100
AcDbText
  0
TEXT
  5
1F47F
330
1F
100
AcDbEntity
  8
0
100
AcDbText
 10
120.0000000000001
 20
684.4676160698367
 30
0.0
 40
6.0
  1
(908)
 50
90.0
 72
     4
 11
117.830832196453
 21
694.251381417722
 31
0.0
100
AcDbText
  0
TEXT
  5
1F480
330
1F
100
AcDbEntity
  8
0
100
AcDbText
 10
146.6427970382968
 20
680.2176160698366
 30
0.0
 40
7.0
  1
2' 11
 50
90.0
 72
     4
 11
143.1308597940949
 21
690.6674796441887
 31
0.0
100
AcDbText
  0
TEXT
  5
1F481
330
1F
100
AcDbEntity
  8
0
100
AcDbText
 10
163.125
 20
680.2176160698366
 30
0.0
 40
7.0
  1
2' 11"
 50
90.0
 72
     4
 11
159.6130627557981
 21
692.4031549511463
 31
0.0
100
AcDbText
  0
TEXT
  5
1F486
330
1F
100
AcDbEntity
  8
0
100
AcDbText
 10
146.6427970382968
 20
626.4676160698367
 30
0.0
 40
7.0
  1
3' 5
 50
90.0
 72
     4
 11
143.1905460151044
 21
634.1981754149935
 31
0.0
100
AcDbText
  0
TEXT
  5
1F487
330
1F
100
AcDbEntity
  8
0
100
AcDbText
 10
163.1250000000002
 20
626.4676160698367
 30
0.0
 40
7.0
  1
3' 5"
 50
90.0
 72
     4
 11
159.6727489768078
 21
635.9338507219513
 31
0.0
100
AcDbText
  0
TEXT
  5
1F488
330
1F
100
AcDbEntity
  8
0
100
AcDbText
 10
120.0000000000001
 20
626.4676160698367
 30
0.0
 40
6.0
  1
(1 060)
 50
90.0
 72
     4
 11
117.830832196453
 21
639.7466065200413
 31
0.0
100
AcDbText
  0
TEXT
  5
1F489
330
1F
100
AcDbEntity
  8
0
100
AcDbText
 10
129.7500000000001
 20
626.4676160698367
 30
0.0
 40
6.0
  1
(1 041)
 50
90.0
 72
     4
 11
127.580832196453
 21
639.7466065200413
 31
0.0
100
AcDbText
  0
TEXT
  5
1F48A
330
1F
100
AcDbEntity
  8
0
100
AcDbText
 10
129.7500000000001
 20
492.4676160698366
 30
0.0
 40
6.0
  1
(1 346)
 50
90.0
 72
     4
 11
127.580832196453
 21
505.7466065200412
 31
0.0
100
AcDbText
  0
TEXT
  5
1F48B
330
1F
100
AcDbEntity
  8
0
100
AcDbText
 10
120.0000000000001
 20
492.4676160698366
 30
0.0
 40
6.0
  1
(1 365)
 50
90.0
 72
     4
 11
117.830832196453
 21
505.7466065200412
 31
0.0
100
AcDbText
  0
TEXT
  5
1F48C
330
1F
100
AcDbEntity
  8
0
100
AcDbText
 10
163.1250000000001
 20
492.4676160698367
 30
0.0
 40
7.0
  1
4' 5"
 50
90.0
 72
     4
 11
159.6846862210096
 21
501.9338507219513
 31
0.0
100
AcDbText
  0
TEXT
  5
1F48D
330
1F
100
AcDbEntity
  8
0
100
AcDbText
 10
146.6427970382968
 20
492.4676160698366
 30
0.0
 40
7.0
  1
4' 5
 50
90.0
 72
     4
 11
143.2024832593063
 21
500.1981754149936
 31
0.0
100
AcDbText
  0
TEXT
  5
1F48E
330
1F
100
AcDbEntity
  8
0
100
AcDbText
 10
129.7500000000001
 20
416.4676160698366
 30
0.0
 40
6.0
  1
(1 499)
 50
90.0
 72
     4
 11
127.580832196453
 21
429.7466065200413
 31
0.0
100
AcDbText
  0
TEXT
  5
1F48F
330
1F
100
AcDbEntity
  8
0
100
AcDbText
 10
120.0000000000001
 20
416.4676160698366
 30
0.0
 40
6.0
  1
(1 518)
 50
90.0
 72
     4
 11
117.830832196453
 21
429.7466065200413
 31
0.0
100
AcDbText
  0
TEXT
  5
1F490
330
1F
100
AcDbEntity
  8
0
100
AcDbText
 10
163.125
 20
416.4676160698367
 30
0.0
 40
7.0
  1
4' 11"
 50
90.0
 72
     4
 11
159.6130627557981
 21
428.6531549511464
 31
0.0
100
AcDbText
  0
TEXT
  5
1F491
330
1F
100
AcDbEntity
  8
0
100
AcDbText
 10
146.6427970382968
 20
416.4676160698367
 30
0.0
 40
7.0
  1
4' 11
 50
90.0
 72
     4
 11
143.1308597940949
 21
426.9174796441887
 31
0.0
100
AcDbText
  0
TEXT
  5
1F492
330
1F
100
AcDbEntity
  8
0
100
AcDbText
 10
146.6427970382968
 20
334.4676160698366
 30
0.0
 40
7.0
  1
5' 5
 50
90.0
 72
     4
 11
143.2502322361139
 21
342.1981754149935
 31
0.0
100
AcDbText
  0
TEXT
  5
1F493
330
1F
100
AcDbEntity
  8
0
100
AcDbText
 10
163.1250000000001
 20
334.4676160698367
 30
0.0
 40
7.0
  1
5' 5"
 50
90.0
 72
     4
 11
159.7324351978173
 21
343.9338507219513
 31
0.0
100
AcDbText
  0
TEXT
  5
1F494
330
1F
100
AcDbEntity
  8
0
100
AcDbText
 10
120.0000000000001
 20
334.4676160698368
 30
0.0
 40
6.0
  1
(1 670)
 50
90.0
 72
     4
 11
117.830832196453
 21
347.7466065200414
 31
0.0
100
AcDbText
  0
TEXT
  5
1F495
330
1F
100
AcDbEntity
  8
0
100
AcDbText
 10
129.7500000000001
 20
334.4676160698368
 30
0.0
 40
6.0
  1
(1 651)
 50
90.0
 72
     4
 11
127.580832196453
 21
347.7466065200414
 31
0.0
100
AcDbText
  0
TEXT
  5
1F496
330
1F
100
AcDbEntity
  8
0
100
AcDbText
 10
146.6427970382968
 20
246.4676160698367
 30
0.0
 40
7.0
  1
5' 11
 50
90.0
 72
     4
 11
143.188158566264
 21
256.9174796441887
 31
0.0
100
AcDbText
  0
TEXT
  5
1F497
330
1F
100
AcDbEntity
  8
0
100
AcDbText
 10
163.1250000000001
 20
246.4676160698367
 30
0.0
 40
7.0
  1
5' 11"
 50
90.0
 72
     4
 11
159.6703615279673
 21
258.6531549511464
 31
0.0
100
AcDbText
  0
TEXT
  5
1F498
330
1F
100
AcDbEntity
  8
0
100
AcDbText
 10
120.0000000000001
 20
246.4676160698367
 30
0.0
 40
6.0
  1
(1 822)
 50
90.0
 72
     4
 11
117.830832196453
 21
259.7466065200414
 31
0.0
100
AcDbText
  0
TEXT
  5
1F499
330
1F
100
AcDbEntity
  8
0
100
AcDbText
 10
129.7500000000001
 20
246.4676160698367
 30
0.0
 40
6.0
  1
(1 803)
 50
90.0
 72
     4
 11
127.580832196453
 21
259.7466065200414
 31
0.0
100
AcDbText
  0
LINE
  5
1F49D
330
1F
100
AcDbEntity
  8
0
100
AcDbLine
 10
135.0000000000001
 20
768.2086433261517
 30
0.0
 11
467.060703022384
 21
768.2086433261517
 31
0.0
  0
LINE
  5
1F49E
330
1F
100
AcDbEntity
  8
0
100
AcDbLine
 10
151.4955136281572
 20
751.7131296979941
 30
0.0
 11
467.060703022384
 21
751.7131296979941
 31
0.0
  0
LINE
  5
1F49F
330
1F
100
AcDbEntity
  8
0
100
AcDbLine
 10
167.9910272563145
 20
735.2176160698367
 30
0.0
 11
467.060703022384
 21
735.2176160698367
 31
0.0
  0
TEXT
  5
1F4A0
330
1F
100
AcDbEntity
  8
0
100
AcDbText
 10
139.8750000000001
 20
756.5836433261514
 30
0.0
 40
6.75
  1
Opening
 72
     4
 11
157.7008015006822
 21
759.0262592879522
 31
0.0
100
AcDbText
  0
TEXT
  5
1F4A1
330
1F
100
AcDbEntity
  8
0
100
AcDbText
 10
156.3750000000001
 20
740.0836433261517
 30
0.0
 40
6.75
  1
Frame
 72
     4
 11
169.9970156889496
 21
743.4033909387028
 31
0.0
100
AcDbText
  0
INSERT
  5
1F4A7
330
1F
100
AcDbEntity
  8
0
100
AcDbBlockReference
  2
341
 10
143.1905460151044
 20
634.1981754149935
 30
0.0
 41
96.0
 42
96.0
 43
96.0
 50
90.0
  0
INSERT
  5
1F4A8
330
1F
100
AcDbEntity
  8
0
100
AcDbBlockReference
  2
341
 10
143.2024832593064
 20
500.1981754149936
 30
0.0
 41
96.0
 42
96.0
 43
96.0
 50
90.0
  0
INSERT
  5
1F4A9
330
1F
100
AcDbEntity
  8
0
100
AcDbBlockReference
  2
342
 10
143.1308597940949
 20
426.9174796441887
 30
0.0
 41
96.0
 42
96.0
 43
96.0
 50
90.0
  0
INSERT
  5
1F4AA
330
1F
100
AcDbEntity
  8
0
100
AcDbBlockReference
  2
341
 10
143.2502322361139
 20
342.1981754149935
 30
0.0
 41
96.0
 42
96.0
 43
96.0
 50
90.0
  0
LINE
  5
1F4AB
330
1F
100
AcDbEntity
  8
0
100
AcDbLine
 10
168.0000000000001
 20
121.2176160698367
 30
0.0
 11
167.9910272563145
 21
735.2176160698367
 31
0.0
  0
LINE
  5
1F4AC
330
1F
100
AcDbEntity
  8
0
100
AcDbLine
 10
151.5000000000001
 20
121.2176160698367
 30
0.0
 11
151.4955136281572
 21
751.7131296979941
 31
0.0
  0
LINE
  5
1F4AD
330
1F
100
AcDbEntity
  8
0
100
AcDbLine
 10
135.0000000000001
 20
121.2176160698367
 30
0.0
 11
135.0000000000001
 21
768.2086433261517
 31
0.0
  0
INSERT
  5
1F4AE
330
1F
100
AcDbEntity
  8
0
100
AcDbBlockReference
  2
342
 10
143.188158566264
 20
256.9174796441887
 30
0.0
 41
96.0
 42
96.0
 43
96.0
 50
90.0
  0
MTEXT
  5
1F78A
330
1F
100
AcDbEntity
  8
0
100
AcDbMText
 10
354.060703022384
 20
128.2176160698371
 30
0.0
 40
6.75
 41
25.0
 71
     2
 72
     5
  1
5073
 73
     1
 44
1.0
1001
ACAD
1000
MTEXTBEGIN
1070
    73
1070
     1
1070
    44
1040
1.0
1070
    74
1070
     0
1000
MTEXTEND
  0
MTEXT
  5
1F78B
330
1F
100
AcDbEntity
  8
0
100
AcDbMText
 10
433.0607030223839
 20
128.2176160698371
 30
0.0
 40
6.75
 41
25.0
 71
     2
 72
     5
  1
5873
 73
     1
 44
1.0
1001
ACAD
1000
MTEXTBEGIN
1070
    73
1070
     1
1070
    44
1040
1.0
1070
    74
1070
     0
1000
MTEXTEND
  0
TEXT
  5
1F9F3
330
1F
100
AcDbEntity
  8
0
100
AcDbText
 10
129.7500000000001
 20
154.4676160698367
 30
0.0
 40
6.0
  1
(1 854)
 50
90.0
 72
     4
 11
127.580832196453
 21
167.7466065200414
 31
0.0
100
AcDbText
  0
TEXT
  5
1F9F4
330
1F
100
AcDbEntity
  8
0
100
AcDbText
 10
120.0000000000001
 20
154.4676160698367
 30
0.0
 40
6.0
  1
(1 873)
 50
90.0
 72
     4
 11
117.830832196453
 21
167.7466065200414
 31
0.0
100
AcDbText
  0
TEXT
  5
1F9F5
330
1F
100
AcDbEntity
  8
0
100
AcDbText
 10
163.1250000000001
 20
154.4676160698367
 30
0.0
 40
7.0
  1
6' 1"
 50
90.0
 72
     4
 11
159.6703615279673
 21
163.9338507219513
 31
0.0
100
AcDbText
  0
TEXT
  5
1F9F6
330
1F
100
AcDbEntity
  8
0
100
AcDbText
 10
146.6427970382968
 20
154.4676160698367
 30
0.0
 40
7.0
  1
6' 1
 50
90.0
 72
     4
 11
143.188158566264
 21
162.1981754149936
 31
0.0
100
AcDbText
  0
INSERT
  5
1FA3F
330
1F
100
AcDbEntity
  8
0
100
AcDbBlockReference
  2
341
 10
143.188158566264
 20
162.1981754149936
 30
0.0
 41
96.0
 42
96.0
 43
96.0
 50
90.0
  0
INSERT
  5
1FA55
330
1F
100
AcDbEntity
  8
0
100
AcDbBlockReference
  2
342
 10
143.1905460151044
 20
572.9174796441887
 30
0.0
 41
96.0
 42
96.0
 43
96.0
 50
90.0
  0
INSERT
  5
28B8D
330
1F
100
AcDbEntity
  8
0
100
AcDbBlockReference
  2
E
 10
462.060703022384
 20
131.2176160698367
 30
0.0
 41
96.0
 42
96.0
 43
96.0
  0
INSERT
  5
29306
330
1F
100
AcDbEntity
  8
0
100
AcDbBlockReference
  2
ASPCICM2-2973T
 10
404.0607030223839
 20
131.2176160698367
 30
0.0
  0
INSERT
  5
29331
330
1F
100
AcDbEntity
  8
0
100
AcDbBlockReference
  2
ASPCICM2-2971T
 10
404.0607030223839
 20
224.2176160698367
 30
0.0
  0
INSERT
  5
2935C
330
1F
100
AcDbEntity
  8
0
100
AcDbBlockReference
  2
ASPCICM2-2965T
 10
404.0607030223839
 20
315.2176160698367
 30
0.0
  0
INSERT
  5
29381
330
1F
100
AcDbEntity
  8
0
100
AcDbBlockReference
  2
ASPCICM2-2959T
 10
404.0607030223839
 20
400.2176160698367
 30
0.0
  0
INSERT
  5
293A6
330
1F
100
AcDbEntity
  8
0
100
AcDbBlockReference
  2
ASPCICM2-2953T
 10
404.0607030223839
 20
479.2176160698367
 30
0.0
  0
INSERT
  5
293C5
330
1F
100
AcDbEntity
  8
0
100
AcDbBlockReference
  2
ASPCICM2-2947T
 10
404.0607030223839
 20
552.2176160698367
 30
0.0
  0
INSERT
  5
293E4
330
1F
100
AcDbEntity
  8
0
100
AcDbBlockReference
  2
ASPCICM2-2941T
 10
404.0607030223839
 20
619.2176160698367
 30
0.0
  0
INSERT
  5
29403
330
1F
100
AcDbEntity
  8
0
100
AcDbBlockReference
  2
ASPCICM2-2935T
 10
404.0607030223839
 20
680.2176160698366
 30
0.0
  0
INSERT
  5
2941C
330
1F
100
AcDbEntity
  8
0
100
AcDbBlockReference
  2
ASPCICM2-2535T
 10
333.060703022384
 20
680.2176160698366
 30
0.0
  0
INSERT
  5
29435
330
1F
100
AcDbEntity
  8
0
100
AcDbBlockReference
  2
ASPCICM2-2335T
 10
258.060703022384
 20
680.2176160698366
 30
0.0
  0
INSERT
  5
2944E
330
1F
100
AcDbEntity
  8
0
100
AcDbBlockReference
  2
ASPCICM2-2135T
 10
191.060703022384
 20
680.2176160698366
 30
0.0
  0
INSERT
  5
29467
330
1F
100
AcDbEntity
  8
0
100
AcDbBlockReference
  2
ASPCICM2-2147T
 10
191.060703022384
 20
552.2176160698367
 30
0.0
  0
INSERT
  5
29483
330
1F
100
AcDbEntity
  8
0
100
AcDbBlockReference
  2
ASPCICM2-2141T
 10
191.060703022384
 20
619.2176160698367
 30
0.0
  0
INSERT
  5
294A0
330
1F
100
AcDbEntity
  8
0
100
AcDbBlockReference
  2
ASPCICM2-2153T
 10
191.060703022384
 20
479.5501254708494
 30
0.0
  0
INSERT
  5
294BD
330
1F
100
AcDbEntity
  8
0
100
AcDbBlockReference
  2
ASPCICM2-2159T
 10
191.060703022384
 20
400.2176160698367
 30
0.0
  0
INSERT
  5
294DE
330
1F
100
AcDbEntity
  8
0
100
AcDbBlockReference
  2
ASPCICM2-2165T
 10
191.060703022384
 20
315.2176160698367
 30
0.0
  0
INSERT
  5
294F7
330
1F
100
AcDbEntity
  8
0
100
AcDbBlockReference
  2
ASPCICM2-2341T
 10
258.060703022384
 20
619.2176160698367
 30
0.0
  0
INSERT
  5
29510
330
1F
100
AcDbEntity
  8
0
100
AcDbBlockReference
  2
ASPCICM2-2347T
 10
258.060703022384
 20
552.2176160698367
 30
0.0
  0
INSERT
  5
2952B
330
1F
100
AcDbEntity
  8
0
100
AcDbBlockReference
  2
ASPCICM2-2353T
 10
258.060703022384
 20
479.5501254708492
 30
0.0
  0
INSERT
  5
29546
330
1F
100
AcDbEntity
  8
0
100
AcDbBlockReference
  2
ASPCICM2-2359T
 10
258.060703022384
 20
400.2176160698367
 30
0.0
  0
INSERT
  5
29565
330
1F
100
AcDbEntity
  8
0
100
AcDbBlockReference
  2
ASPCICM2-2365T
 10
258.060703022384
 20
315.2176160698367
 30
0.0
  0
INSERT
  5
2957E
330
1F
100
AcDbEntity
  8
0
100
AcDbBlockReference
  2
ASPCICM2-2541T
 10
329.060703022384
 20
619.2176160698367
 30
0.0
  0
INSERT
  5
29597
330
1F
100
AcDbEntity
  8
0
100
AcDbBlockReference
  2
ASPCICM2-2547T
 10
329.060703022384
 20
552.2176160698367
 30
0.0
  0
INSERT
  5
295B4
330
1F
100
AcDbEntity
  8
0
100
AcDbBlockReference
  2
ASPCICM2-2553T
 10
329.060703022384
 20
479.2176160698367
 30
0.0
  0
INSERT
  5
295D1
330
1F
100
AcDbEntity
  8
0
100
AcDbBlockReference
  2
ASPCICM2-2559T
 10
329.060703022384
 20
400.2176160698367
 30
0.0
  0
INSERT
  5
295F2
330
1F
100
AcDbEntity
  8
0
100
AcDbBlockReference
  2
ASPCICM2-2565T
 10
329.060703022384
 20
315.2176160698367
 30
0.0
  0
INSERT
  5
29613
330
1F
100
AcDbEntity
  8
0
100
AcDbBlockReference
  2
ASPCICM2-2571T
 10
329.060703022384
 20
224.2176160698367
 30
0.0
  0
INSERT
  5
29638
330
1F
100
AcDbEntity
  8
0
100
AcDbBlockReference
  2
ASPCICM2-2573T
 10
329.060703022384
 20
131.2176160698367
 30
0.0
  0
INSERT
  5
29EA4
330
1F
100
AcDbEntity
  8
0
100
AcDbBlockReference
  2
342
 10
143.1308597940949
 20
690.6674796441887
 30
0.0
 41
96.0
 42
96.0
 43
96.0
 50
90.0
  0
INSERT
  5
29F00
330
1F
100
AcDbEntity
  8
0
100
AcDbBlockReference
  2
342
 10
431.0412623675408
 20
760.0382817981844
 30
0.0
 41
96.0
 42
96.0
 43
96.0
  0
INSERT
  5
29FAA
330
1F
100
AcDbEntity
  8
0
100
AcDbBlockReference
  2
E
 10
233.060703022384
 20
680.2176160698366
 30
0.0
 41
96.0
 42
96.0
 43
96.0
  0
INSERT
  5
29FAB
330
1F
100
AcDbEntity
  8
0
100
AcDbBlockReference
  2
E
 10
233.060703022384
 20
619.2176160698367
 30
0.0
 41
96.0
 42
96.0
 43
96.0
  0
INSERT
  5
29FAC
330
1F
100
AcDbEntity
  8
0
100
AcDbBlockReference
  2
E
 10
304.060703022384
 20
680.2176160698366
 30
0.0
 41
96.0
 42
96.0
 43
96.0
  0
INSERT
  5
29FAD
330
1F
100
AcDbEntity
  8
0
100
AcDbBlockReference
  2
E
 10
304.060703022384
 20
619.2176160698367
 30
0.0
 41
96.0
 42
96.0
 43
96.0
  0
INSERT
  5
29FAE
330
1F
100
AcDbEntity
  8
0
100
AcDbBlockReference
  2
E
 10
383.060703022384
 20
680.2176160698366
 30
0.0
 41
96.0
 42
96.0
 43
96.0
  0
INSERT
  5
29FAF
330
1F
100
AcDbEntity
  8
0
100
AcDbBlockReference
  2
E
 10
233.060703022384
 20
552.2176160698367
 30
0.0
 41
96.0
 42
96.0
 43
96.0
  0
INSERT
  5
29FB0
330
1F
100
AcDbEntity
  8
0
100
AcDbBlockReference
  2
E
 10
304.060703022384
 20
552.2176160698367
 30
0.0
 41
96.0
 42
96.0
 43
96.0
  0
INSERT
  5
29FB1
330
1F
100
AcDbEntity
  8
0
100
AcDbBlockReference
  2
E
 10
233.060703022384
 20
479.2176160698367
 30
0.0
 41
96.0
 42
96.0
 43
96.0
  0
INSERT
  5
29FB2
330
1F
100
AcDbEntity
  8
0
100
AcDbBlockReference
  2
E
 10
304.060703022384
 20
479.2176160698367
 30
0.0
 41
96.0
 42
96.0
 43
96.0
  0
INSERT
  5
29FB3
330
1F
100
AcDbEntity
  8
0
100
AcDbBlockReference
  2
E
 10
304.060703022384
 20
400.2176160698367
 30
0.0
 41
96.0
 42
96.0
 43
96.0
  0
INSERT
  5
29FB4
330
1F
100
AcDbEntity
  8
0
100
AcDbBlockReference
  2
E
 10
233.060703022384
 20
400.2176160698367
 30
0.0
 41
96.0
 42
96.0
 43
96.0
  0
INSERT
  5
29FB5
330
1F
100
AcDbEntity
  8
0
100
AcDbBlockReference
  2
E
 10
233.060703022384
 20
315.2176160698367
 30
0.0
 41
96.0
 42
96.0
 43
96.0
  0
INSERT
  5
29FB6
330
1F
100
AcDbEntity
  8
0
100
AcDbBlockReference
  2
E
 10
304.060703022384
 20
315.2176160698367
 30
0.0
 41
96.0
 42
96.0
 43
96.0
  0
INSERT
  5
29FB7
330
1F
100
AcDbEntity
  8
0
100
AcDbBlockReference
  2
E
 10
379.060703022384
 20
131.2176160698367
 30
0.0
 41
96.0
 42
96.0
 43
96.0
  0
INSERT
  5
29FB8
330
1F
100
AcDbEntity
  8
0
100
AcDbBlockReference
  2
E
 10
379.060703022384
 20
224.2176160698367
 30
0.0
 41
96.0
 42
96.0
 43
96.0
  0
INSERT
  5
29FB9
330
1F
100
AcDbEntity
  8
0
100
AcDbBlockReference
  2
E
 10
379.060703022384
 20
315.2176160698367
 30
0.0
 41
96.0
 42
96.0
 43
96.0
  0
INSERT
  5
29FBA
330
1F
100
AcDbEntity
  8
0
100
AcDbBlockReference
  2
E
 10
379.060703022384
 20
400.2176160698367
 30
0.0
 41
96.0
 42
96.0
 43
96.0
  0
INSERT
  5
29FBB
330
1F
100
AcDbEntity
  8
0
100
AcDbBlockReference
  2
E
 10
379.060703022384
 20
479.2176160698367
 30
0.0
 41
96.0
 42
96.0
 43
96.0
  0
INSERT
  5
29FBC
330
1F
100
AcDbEntity
  8
0
100
AcDbBlockReference
  2
E
 10
379.060703022384
 20
552.2176160698367
 30
0.0
 41
96.0
 42
96.0
 43
96.0
  0
INSERT
  5
29FBD
330
1F
100
AcDbEntity
  8
0
100
AcDbBlockReference
  2
E
 10
379.060703022384
 20
619.2176160698367
 30
0.0
 41
96.0
 42
96.0
 43
96.0
  0
INSERT
  5
2A031
330
1F
100
AcDbEntity
  8
0
100
AcDbBlockReference
  2
E
 10
462.060703022384
 20
619.2176160698367
 30
0.0
 41
96.0
 42
96.0
 43
96.0
  0
INSERT
  5
2A032
330
1F
100
AcDbEntity
  8
0
100
AcDbBlockReference
  2
E
 10
462.060703022384
 20
680.2176160698366
 30
0.0
 41
96.0
 42
96.0
 43
96.0
  0
ENDSEC
  0
SECTION
  2
OBJECTS
  0
DICTIONARY
  5
C
330
0
100
AcDbDictionary
281
     1
  3
ACAD_COLOR
350
A6AD
  3
ACAD_GROUP
350
D
  3
ACAD_LAYOUT
350
1A
  3
ACAD_MATERIAL
350
A6AC
  3
ACAD_MLEADERSTYLE
350
28C40
  3
ACAD_MLINESTYLE
350
17
  3
ACAD_PLOTSETTINGS
350
19
  3
ACAD_PLOTSTYLENAME
350
E
  3
ACAD_SCALELIST
350
28C1E
  3
ACAD_TABLESTYLE
350
28C1C
  3
ACAD_VISUALSTYLE
350
28C0B
  3
AcadDim
350
15D
  3
ACDB_RECOMPOSE_DATA
350
28E72
  3
AcDbVariableDictionary
350
79D9
  3
ADE_QUERY_LIBRARY
350
1012
  3
AMAcad
350
1B9
  3
ASE_INDEX_DICTIONARY
350
133DF
  3
AVAT_FILE_STORE
350
FD6
  3
DWGPROPS
350
2A060
1001
ADE
1000
ADE02C004
1000
[Query]
1000
CaseSensitiveMatch=0
1000
SaveCurrQueryInSession=1
1000
MkSelSetWithQryObj=0
1000
ShowBlockAsInsPt=0
1000
CreateAssociativeHatchObjects=0
1000
ReferenceBoundaryForAreaLocation=1
1000
ShowImageAsBoundary=1
1000
DefaultJoinOperator=2
1000
ColorForAdd=red
1000
ColorForRemove=red
1000
BlockLocnForQuery=1
1000
TextLocnForQuery=1
1000
[Save Back]
1000
RedefineBlockDefinitions=1
1000
RedefineLayerDefinitions=1
1000
RedefineTextStyleDefinitions=1
1000
RemoveUnusedGroups=1
1000
EraseSavedBackObjects=1
1000
RemoveLockAfterSave=1
1000
CreateHistoryFileOfChanges=0
1000
CreateBackupFileOfSourceDwg=1
1000
DontAddObjectsToSaveSet=0
1000
MarkObjectsForEditingWithoutPrompting=0
1000
[Coordinate Transformation]
1000
RestoreLastActiveDwgsOnStartup=1
1000
ActivateDwgsOnAttach=1
1000
AdjustSizesAndScalesForChangesInUnits=1
1000
AdjustRotationsForMapDistortions=1
1000
AdjustSizesAndScalesForMapDistortions=1
1000
AdjustElevations=1
1000
AdjustZeroRotationObjects=1
1000
ReconnectDbOnWSOpen=1
1000
NoOfSQLConditionsInHistory=10
  0
DICTIONARY
  5
29223
330
8
100
AcDbDictionary
280
     1
281
     1
  0
DICTIONARY
  5
13579
330
2
100
AcDbDictionary
280
     1
281
     1
  3
ACAD_LAYERFILTERS
360
29F10
  3
ACAD_LAYERSTATES
360
1357A
  3
ACLYDICTIONARY
360
29F0F
  0
DICTIONARY
  5
28E32
330
10
100
AcDbDictionary
280
     1
281
     1
  3
ADSK_XREC_LAYER_RECONCILED
360
28E33
  0
DICTIONARY
  5
28E36
330
1462C
100
AcDbDictionary
280
     1
281
     1
  3
ADSK_XREC_LAYER_RECONCILED
360
28E37
  0
DICTIONARY
  5
28E38
330
1462D
100
AcDbDictionary
280
     1
281
     1
  3
ADSK_XREC_LAYER_RECONCILED
360
28E39
  0
DICTIONARY
  5
28E3A
330
1462E
100
AcDbDictionary
280
     1
281
     1
  3
ADSK_XREC_LAYER_RECONCILED
360
28E3B
  0
DICTIONARY
  5
28E4A
330
15439
100
AcDbDictionary
280
     1
281
     1
  3
ADSK_XREC_LAYER_RECONCILED
360
28E4B
  0
DICTIONARY
  5
28E4C
330
19873
100
AcDbDictionary
280
     1
281
     1
  3
ADSK_XREC_LAYER_RECONCILED
360
28E4D
  0
DICTIONARY
  5
2924C
330
2924B
100
AcDbDictionary
280
     1
281
     1
  0
DICTIONARY
  5
2924E
330
2924D
100
AcDbDictionary
280
     1
281
     1
  0
DICTIONARY
  5
12221
330
1F
100
AcDbDictionary
280
     1
281
     1
  3
ACAD_SORTENTS
360
29ED4
  0
DICTIONARY
  5
1F5D3
330
19861
100
AcDbDictionary
280
     1
281
     1
  3
ACAD_SORTENTS
360
1F5D4
  0
DICTIONARY
  5
29302
330
292D6
100
AcDbDictionary
280
     1
281
     1
  3
ACAD_SORTENTS
360
29303
  0
DICTIONARY
  5
2932D
330
29307
100
AcDbDictionary
280
     1
281
     1
  3
ACAD_SORTENTS
360
2932E
  0
DICTIONARY
  5
29358
330
29332
100
AcDbDictionary
280
     1
281
     1
  3
ACAD_SORTENTS
360
29359
  0
DICTIONARY
  5
2937D
330
2935D
100
AcDbDictionary
280
     1
281
     1
  3
ACAD_SORTENTS
360
2937E
  0
DICTIONARY
  5
293A2
330
29382
100
AcDbDictionary
280
     1
281
     1
  3
ACAD_SORTENTS
360
293A3
  0
DICTIONARY
  5
293C1
330
293A7
100
AcDbDictionary
280
     1
281
     1
  3
ACAD_SORTENTS
360
293C2
  0
DICTIONARY
  5
293E0
330
293C6
100
AcDbDictionary
280
     1
281
     1
  3
ACAD_SORTENTS
360
293E1
  0
DICTIONARY
  5
293FF
330
293E5
100
AcDbDictionary
280
     1
281
     1
  3
ACAD_SORTENTS
360
29400
  0
DICTIONARY
  5
29418
330
29404
100
AcDbDictionary
280
     1
281
     1
  3
ACAD_SORTENTS
360
29419
  0
DICTIONARY
  5
29431
330
2941D
100
AcDbDictionary
280
     1
281
     1
  3
ACAD_SORTENTS
360
29432
  0
DICTIONARY
  5
2944A
330
29436
100
AcDbDictionary
280
     1
281
     1
  3
ACAD_SORTENTS
360
2944B
  0
DICTIONARY
  5
29463
330
2944F
100
AcDbDictionary
280
     1
281
     1
  3
ACAD_SORTENTS
360
29464
  0
DICTIONARY
  5
2947F
330
2946A
100
AcDbDictionary
280
     1
281
     1
  3
ACAD_SORTENTS
360
29480
  0
DICTIONARY
  5
2949C
330
29484
100
AcDbDictionary
280
     1
281
     1
  3
ACAD_SORTENTS
360
2949D
  0
DICTIONARY
  5
294B9
330
294A1
100
AcDbDictionary
280
     1
281
     1
  3
ACAD_SORTENTS
360
294BA
  0
DICTIONARY
  5
294DA
330
294BE
100
AcDbDictionary
280
     1
281
     1
  3
ACAD_SORTENTS
360
294DB
  0
DICTIONARY
  5
294F3
330
294DF
100
AcDbDictionary
280
     1
281
     1
  3
ACAD_SORTENTS
360
294F4
  0
DICTIONARY
  5
2950C
330
294F8
100
AcDbDictionary
280
     1
281
     1
  3
ACAD_SORTENTS
360
2950D
  0
DICTIONARY
  5
29527
330
29511
100
AcDbDictionary
280
     1
281
     1
  3
ACAD_SORTENTS
360
29528
  0
DICTIONARY
  5
29542
330
2952C
100
AcDbDictionary
280
     1
281
     1
  3
ACAD_SORTENTS
360
29543
  0
DICTIONARY
  5
29561
330
29547
100
AcDbDictionary
280
     1
281
     1
  3
ACAD_SORTENTS
360
29562
  0
DICTIONARY
  5
2957A
330
29566
100
AcDbDictionary
280
     1
281
     1
  3
ACAD_SORTENTS
360
2957B
  0
DICTIONARY
  5
29593
330
2957F
100
AcDbDictionary
280
     1
281
     1
  3
ACAD_SORTENTS
360
29594
  0
DICTIONARY
  5
295B0
330
29598
100
AcDbDictionary
280
     1
281
     1
  3
ACAD_SORTENTS
360
295B1
  0
DICTIONARY
  5
295CD
330
295B5
100
AcDbDictionary
280
     1
281
     1
  3
ACAD_SORTENTS
360
295CE
  0
DICTIONARY
  5
295EE
330
295D2
100
AcDbDictionary
280
     1
281
     1
  3
ACAD_SORTENTS
360
295EF
  0
DICTIONARY
  5
2960F
330
295F3
100
AcDbDictionary
280
     1
281
     1
  3
ACAD_SORTENTS
360
29610
  0
DICTIONARY
  5
29634
330
29614
100
AcDbDictionary
280
     1
281
     1
  3
ACAD_SORTENTS
360
29635
  0
DICTIONARY
  5
A6AD
102
{ACAD_REACTORS
330
C
102
}
330
C
100
AcDbDictionary
281
     1
  0
DICTIONARY
  5
D
102
{ACAD_REACTORS
330
C
102
}
330
C
100
AcDbDictionary
281
     1
  0
DICTIONARY
  5
1A
102
{ACAD_REACTORS
330
C
102
}
330
C
100
AcDbDictionary
281
     1
  3
Layout1
350
1355A
  3
Model
350
22
  0
DICTIONARY
  5
A6AC
102
{ACAD_REACTORS
330
C
102
}
330
C
100
AcDbDictionary
281
     1
  3
ByBlock
350
28BFB
  3
ByLayer
350
28BF3
  3
Global
350
28C03
  0
DICTIONARY
  5
28C40
102
{ACAD_REACTORS
330
C
102
}
330
C
100
AcDbDictionary
281
     1
  3
Standard
350
2A03C
  0
DICTIONARY
  5
17
102
{ACAD_REACTORS
330
C
102
}
330
C
100
AcDbDictionary
281
     1
  3
Standard
350
18
  0
DICTIONARY
  5
19
102
{ACAD_REACTORS
330
C
102
}
330
C
100
AcDbDictionary
281
     1
  3
22x17 Xerox8830
350
CBD1
  3
22x34 Xerox8830
350
CBD0
  3
8.5x11(row 1)
350
B30E
  3
8.5x11(row 2)
350
BF67
  3
8.5x11(row 3)
350
BF68
  3
8.5x11(row 4)
350
BF69
  0
ACDBDICTIONARYWDFLT
  5
E
102
{ACAD_REACTORS
330
C
102
}
330
C
100
AcDbDictionary
281
     1
  3
Normal
350
F
100
AcDbDictionaryWithDefault
340
F
  0
DICTIONARY
  5
28C1E
102
{ACAD_REACTORS
330
C
102
}
330
C
100
AcDbDictionary
281
     1
  3
*A1
350
28C60
  3
*A2
350
28C61
  3
*A3
350
28C62
  3
*A4
350
28C63
  3
*A5
350
28C64
  3
A0
350
28C1F
  3
A1
350
28C20
  3
A2
350
28C21
  3
A3
350
28C22
  3
A4
350
28C23
  3
A5
350
28C24
  3
A6
350
28C25
  3
A7
350
28C26
  3
A8
350
28C27
  3
A9
350
28C28
  3
B0
350
28C29
  3
B1
350
28C2A
  3
B2
350
28C2B
  3
B3
350
28C2C
  3
B4
350
28C2D
  3
B5
350
28C2E
  3
B6
350
28C2F
  3
B7
350
28C30
  3
B8
350
28C31
  3
B9
350
28C32
  3
C0
350
28C33
  3
C1
350
28C34
  3
C2
350
28C35
  3
C3
350
28C36
  3
C4
350
28C37
  3
C5
350
28C38
  3
C6
350
28C39
  3
C7
350
28C3A
  3
C8
350
28C3B
  3
C9
350
28C3C
  3
D0
350
28C3D
  3
D1
350
28C3E
  3
D2
350
28C3F
  0
DICTIONARY
  5
28C1C
102
{ACAD_REACTORS
330
C
102
}
330
C
100
AcDbDictionary
281
     1
  3
Standard
350
28C1D
  0
DICTIONARY
  5
28C0B
102
{ACAD_REACTORS
330
C
102
}
330
C
100
AcDbDictionary
281
     1
  3
2dWireframe
350
28C11
  3
3D Hidden
350
28C13
  3
3dWireframe
350
28C12
  3
Basic
350
28C10
  3
Brighten
350
28C17
  3
ColorChange
350
28C1B
  3
Conceptual
350
28C14
  3
Dim
350
28C16
  3
Facepattern
350
28C1A
  3
Flat
350
28C0C
  3
FlatWithEdges
350
28C0D
  3
Gouraud
350
28C0E
  3
GouraudWithEdges
350
28C0F
  3
Linepattern
350
28C19
  3
Realistic
350
28C15
  3
Thicken
350
28C18
  0
XRECORD
  5
15D
102
{ACAD_REACTORS
330
C
102
}
330
C
100
AcDbXrecord
280
     1
 90
   990106
  3

 60
     0
 61
     0
 62
     1
 63
     3
 64
     0
 65
     0
 66
     0
 67
     3
 68
     0
 69
     0
 70
     0
 71
     0
 72
     0
 40
0.0
170
     2
340
0
  0
XRECORD
  5
28E72
102
{ACAD_REACTORS
330
C
102
}
330
C
100
AcDbXrecord
280
     1
 90
        1
330
28C1D
  0
DICTIONARY
  5
79D9
102
{ACAD_REACTORS
330
C
102
}
330
C
100
AcDbDictionary
281
     1
  3
CANNOSCALE
350
28E76
  3
CMLEADERSTYLE
350
28E74
  3
CTABLESTYLE
350
28E73
  3
DIMASSOC
350
79DA
  3
INDEXCTL
350
2A05E
  3
LIGHTINGUNITS
350
28E77
  3
MSLTSCALE
350
28E75
  3
PROJECTNAME
350
13601
  3
SORTENTS
350
2A05D
  0
DICTIONARY
  5
1012
102
{ACAD_REACTORS
330
C
102
}
330
C
100
AcDbDictionary
281
     1
  3
_CurrQry
350
1047
  0
DICTIONARY
  5
1B9
102
{ACAD_REACTORS
330
C
102
}
330
C
100
AcDbDictionary
281
     1
  3
AM_LOADER
350
1BA
  0
DICTIONARY
  5
133DF
102
{ACAD_REACTORS
330
C
102
}
330
C
100
AcDbDictionary
281
     1
  3
ASEBlockHierarchyIndexRecord
350
133E0
1001
DCO15
1040
1576390265.083
  0
DICTIONARY
  5
FD6
102
{ACAD_REACTORS
330
C
102
}
330
C
100
AcDbDictionary
281
     1
  0
XRECORD
  5
2A060
102
{ACAD_REACTORS
330
C
102
}
330
C
100
AcDbXrecord
280
     1
  1
DWGPROPS COOKIE
  2

  3

  4

  6

  7

  8
rohwertl
  9

300
=
301
=
302
=
303
=
304
=
305
=
306
=
307
=
308
=
309
=
 40
2.078552291666666
 41
2453620.458702304
 42
2455630.710467917
  1

 90
        0
  0
DICTIONARY
  5
29F10
102
{ACAD_REACTORS
330
13579
102
}
330
13579
100
AcDbDictionary
281
     1
  0
DICTIONARY
  5
1357A
102
{ACAD_REACTORS
330
13579
102
}
330
13579
100
AcDbDictionary
281
     1
  0
DICTIONARY
  5
29F0F
102
{ACAD_REACTORS
330
13579
102
}
330
13579
100
AcDbDictionary
281
     1
1001
ACAD
1000
<All
  0
XRECORD
  5
28E33
102
{ACAD_REACTORS
330
28E32
102
}
330
28E32
100
AcDbXrecord
280
     1
290
     1
  0
XRECORD
  5
28E37
102
{ACAD_REACTORS
330
28E36
102
}
330
28E36
100
AcDbXrecord
280
     1
290
     1
  0
XRECORD
  5
28E39
102
{ACAD_REACTORS
330
28E38
102
}
330
28E38
100
AcDbXrecord
280
     1
290
     1
  0
XRECORD
  5
28E3B
102
{ACAD_REACTORS
330
28E3A
102
}
330
28E3A
100
AcDbXrecord
280
     1
290
     1
  0
XRECORD
  5
28E4B
102
{ACAD_REACTORS
330
28E4A
102
}
330
28E4A
100
AcDbXrecord
280
     1
290
     1
  0
XRECORD
  5
28E4D
102
{ACAD_REACTORS
330
28E4C
102
}
330
28E4C
100
AcDbXrecord
280
     1
290
     1
  0
SORTENTSTABLE
  5
29ED4
102
{ACAD_REACTORS
330
12221
102
}
330
12221
100
AcDbSortentsTable
330
1F
331
1F4A8
  5
1F4A8
331
1F461
  5
1F461
331
1F432
  5
1F432
331
1F481
  5
1F481
331
1F43A
  5
1F43A
331
29FAD
  5
29FAE
331
29FB5
  5
29FB6
331
29FBD
  5
29FDA
331
1F489
  5
1F489
331
1F491
  5
1F491
331
1F452
  5
1F452
331
294DE
  5
294F7
331
1F499
  5
1F499
331
1F45A
  5
1F45A
331
1F3CB
  5
1F3CB
331
1F4A1
  5
1F4A1
331
1F462
  5
1F462
331
1F4A9
  5
1F4A9
331
1F423
  5
1F423
331
1F46A
  5
1F46A
331
29FAE
  5
29FAF
331
295D1
  5
295F2
331
29FB6
  5
29FB7
331
1F48A
  5
1F48A
331
1F492
  5
1F492
331
1F453
  5
1F453
331
1F45B
  5
1F45B
331
1F3CC
  5
1F3CC
331
294A0
  5
294BD
331
2935C
  5
29381
331
1F4AA
  5
1F4AA
331
1F424
  5
1F424
331
1F463
  5
1F463
331
29403
  5
2941C
331
1F42C
  5
1F42C
331
1F46B
  5
1F46B
331
1F78A
  5
1F78B
331
294F7
  5
29510
331
1F43C
  5
1F43C
331
29546
  5
29565
331
29638
  5
29EA4
331
29FAF
  5
29FB0
331
29FB7
  5
29FB8
331
29306
  5
29331
331
293E4
  5
29403
331
1F48B
  5
1F48B
331
1F493
  5
1F493
331
1F45C
  5
1F45C
331
29F00
  5
29FAA
331
295F2
  5
29613
331
293C5
  5
293E4
331
1F425
  5
1F425
331
1F4AB
  5
1F4AB
331
1F42D
  5
1F42D
331
1F46C
  5
1F46C
331
1F78B
  5
1F78D
331
1F435
  5
1F435
331
1F9F3
  5
1F9F4
331
1F43D
  5
1F43D
331
29FB0
  5
29FB1
331
29FB8
  5
29FB9
331
1F48C
  5
1F48C
331
2941C
  5
29435
331
293A6
  5
293C5
331
29510
  5
2952B
331
1F3BE
  5
1F3BE
331
1F494
  5
1F494
331
1F45D
  5
1F45D
331
1F3CE
  5
1F3CE
331
29565
  5
2957E
331
295B4
  5
295D1
331
1F4AC
  5
1F4AC
331
1F426
  5
1F426
331
1F465
  5
1F465
331
1F42E
  5
1F42E
331
1F46D
  5
1F46D
331
1F436
  5
1F436
331
29483
  5
294A0
331
1F9F4
  5
1F9F5
331
1F43E
  5
1F43E
331
29FB1
  5
29FB2
331
29FB9
  5
29FBA
331
29613
  5
29638
331
1F48D
  5
1F48D
331
1F495
  5
1F495
331
1F45E
  5
1F45E
331
1F49D
  5
1F49D
331
29435
  5
2944E
331
2957E
  5
29597
331
1F427
  5
1F427
331
1F466
  5
1F466
331
1F4AD
  5
1F4AD
331
1F42F
  5
1F42F
331
1F437
  5
1F437
331
1F47E
  5
1F47E
331
1F9F5
  5
1F9F6
331
1F43F
  5
1F43F
331
1F486
  5
1F486
331
29FAA
  5
29FAB
331
29FB2
  5
29FB3
331
29FBA
  5
29FBB
331
1F48E
  5
1F48E
331
1FA55
  5
28B8D
331
1F496
  5
1F496
331
1F45F
  5
1F45F
331
1F49E
  5
1F49E
331
28B8D
  5
28BC6
331
29381
  5
293A6
331
1F4AE
  5
1F4AE
331
1F428
  5
1F428
331
1F467
  5
1F467
331
1F430
  5
1F430
331
2944E
  5
29467
331
1F438
  5
1F438
331
1F47F
  5
1F47F
331
1F9F6
  5
1FA3F
331
1F487
  5
1F487
331
29FAB
  5
29FAC
331
29FB3
  5
29FB4
331
29FBB
  5
29FBC
331
29597
  5
295B4
331
29EA4
  5
29F00
331
29331
  5
2935C
331
1F440
  5
1F440
331
1F450
  5
1F450
331
1F48F
  5
1F48F
331
1F458
  5
1F458
331
1F3C9
  5
1F3C9
331
1F497
  5
1F497
331
1F3D9
  5
1F3D9
331
1F49F
  5
1F49F
331
1F4A7
  5
1F4A7
331
1F460
  5
1F460
331
1F429
  5
1F429
331
2952B
  5
29546
331
1F431
  5
1F431
331
294BD
  5
294DE
331
1F439
  5
1F439
331
1F480
  5
1F480
331
29FAC
  5
29FAD
331
29FB4
  5
29FB5
331
29FBC
  5
29FBD
331
1F441
  5
1F441
331
1F488
  5
1F488
331
1FA3F
  5
1FA55
331
1F451
  5
1F451
331
1F490
  5
1F490
331
29467
  5
29483
331
1F459
  5
1F459
331
1F498
  5
1F498
331
1F4A0
  5
1F4A0
  0
SORTENTSTABLE
  5
1F5D4
102
{ACAD_REACTORS
330
1F5D3
102
}
330
1F5D3
100
AcDbSortentsTable
330
19861
  0
SORTENTSTABLE
  5
29303
102
{ACAD_REACTORS
330
29302
102
}
330
29302
100
AcDbSortentsTable
330
292D6
  0
SORTENTSTABLE
  5
2932E
102
{ACAD_REACTORS
330
2932D
102
}
330
2932D
100
AcDbSortentsTable
330
29307
  0
SORTENTSTABLE
  5
29359
102
{ACAD_REACTORS
330
29358
102
}
330
29358
100
AcDbSortentsTable
330
29332
  0
SORTENTSTABLE
  5
2937E
102
{ACAD_REACTORS
330
2937D
102
}
330
2937D
100
AcDbSortentsTable
330
2935D
  0
SORTENTSTABLE
  5
293A3
102
{ACAD_REACTORS
330
293A2
102
}
330
293A2
100
AcDbSortentsTable
330
29382
  0
SORTENTSTABLE
  5
293C2
102
{ACAD_REACTORS
330
293C1
102
}
330
293C1
100
AcDbSortentsTable
330
293A7
  0
SORTENTSTABLE
  5
293E1
102
{ACAD_REACTORS
330
293E0
102
}
330
293E0
100
AcDbSortentsTable
330
293C6
  0
SORTENTSTABLE
  5
29400
102
{ACAD_REACTORS
330
293FF
102
}
330
293FF
100
AcDbSortentsTable
330
293E5
  0
SORTENTSTABLE
  5
29419
102
{ACAD_REACTORS
330
29418
102
}
330
29418
100
AcDbSortentsTable
330
29404
  0
SORTENTSTABLE
  5
29432
102
{ACAD_REACTORS
330
29431
102
}
330
29431
100
AcDbSortentsTable
330
2941D
  0
SORTENTSTABLE
  5
2944B
102
{ACAD_REACTORS
330
2944A
102
}
330
2944A
100
AcDbSortentsTable
330
29436
  0
SORTENTSTABLE
  5
29464
102
{ACAD_REACTORS
330
29463
102
}
330
29463
100
AcDbSortentsTable
330
2944F
  0
SORTENTSTABLE
  5
29480
102
{ACAD_REACTORS
330
2947F
102
}
330
2947F
100
AcDbSortentsTable
330
2946A
  0
SORTENTSTABLE
  5
2949D
102
{ACAD_REACTORS
330
2949C
102
}
330
2949C
100
AcDbSortentsTable
330
29484
  0
SORTENTSTABLE
  5
294BA
102
{ACAD_REACTORS
330
294B9
102
}
330
294B9
100
AcDbSortentsTable
330
294A1
  0
SORTENTSTABLE
  5
294DB
102
{ACAD_REACTORS
330
294DA
102
}
330
294DA
100
AcDbSortentsTable
330
294BE
  0
SORTENTSTABLE
  5
294F4
102
{ACAD_REACTORS
330
294F3
102
}
330
294F3
100
AcDbSortentsTable
330
294DF
  0
SORTENTSTABLE
  5
2950D
102
{ACAD_REACTORS
330
2950C
102
}
330
2950C
100
AcDbSortentsTable
330
294F8
  0
SORTENTSTABLE
  5
29528
102
{ACAD_REACTORS
330
29527
102
}
330
29527
100
AcDbSortentsTable
330
29511
  0
SORTENTSTABLE
  5
29543
102
{ACAD_REACTORS
330
29542
102
}
330
29542
100
AcDbSortentsTable
330
2952C
  0
SORTENTSTABLE
  5
29562
102
{ACAD_REACTORS
330
29561
102
}
330
29561
100
AcDbSortentsTable
330
29547
  0
SORTENTSTABLE
  5
2957B
102
{ACAD_REACTORS
330
2957A
102
}
330
2957A
100
AcDbSortentsTable
330
29566
  0
SORTENTSTABLE
  5
29594
102
{ACAD_REACTORS
330
29593
102
}
330
29593
100
AcDbSortentsTable
330
2957F
  0
SORTENTSTABLE
  5
295B1
102
{ACAD_REACTORS
330
295B0
102
}
330
295B0
100
AcDbSortentsTable
330
29598
  0
SORTENTSTABLE
  5
295CE
102
{ACAD_REACTORS
330
295CD
102
}
330
295CD
100
AcDbSortentsTable
330
295B5
  0
SORTENTSTABLE
  5
295EF
102
{ACAD_REACTORS
330
295EE
102
}
330
295EE
100
AcDbSortentsTable
330
295D2
  0
SORTENTSTABLE
  5
29610
102
{ACAD_REACTORS
330
2960F
102
}
330
2960F
100
AcDbSortentsTable
330
295F3
  0
SORTENTSTABLE
  5
29635
102
{ACAD_REACTORS
330
29634
102
}
330
29634
100
AcDbSortentsTable
330
29614
  0
LAYOUT
  5
1355A
102
{ACAD_XDICTIONARY
360
2A06F
102
}
102
{ACAD_REACTORS
330
1A
102
}
330
1A
100
AcDbPlotSettings
  1

  2
\\pelsprnt01\PEASP5
  4

  6

 40
0.0
 41
0.0
 42
0.0
 43
0.0
 44
0.0
 45
0.0
 46
0.0
 47
0.0
 48
0.0
 49
0.0
140
0.0
141
0.0
142
1.0
143
1.0
 70
   688
 72
     0
 73
     0
 74
     5
  7
PellaCAD 2000.ctb
 75
    16
147
1.0
148
0.0
149
0.0
100
AcDbLayout
  1
Layout1
 70
     1
 71
     1
 10
0.0
 20
0.0
 11
12.0
 21
9.0
 12
0.0
 22
0.0
 32
0.0
 14
0.0
 24
0.0
 34
0.0
 15
0.0
 25
0.0
 35
0.0
146
0.0
 13
0.0
 23
0.0
 33
0.0
 16
1.0
 26
0.0
 36
0.0
 17
0.0
 27
1.0
 37
0.0
 76
     0
330
13559
  0
LAYOUT
  5
22
102
{ACAD_XDICTIONARY
360
2A061
102
}
102
{ACAD_REACTORS
330
1A
102
}
330
1A
100
AcDbPlotSettings
  1

  2

  4

  6

 40
0.0
 41
0.0
 42
0.0
 43
0.0
 44
0.0
 45
0.0
 46
0.0
 47
0.0
 48
0.0
 49
0.0
140
0.0
141
0.0
142
1.0
143
1.0
 70
  1712
 72
     0
 73
     0
 74
     0
  7

 75
     0
147
1.0
148
0.0
149
0.0
100
AcDbLayout
  1
Model
 70
     1
 71
     0
 10
0.0
 20
0.0
 11
12.0
 21
9.0
 12
0.0
 22
0.0
 32
0.0
 14
0.0
 24
0.0
 34
0.0
 15
0.0
 25
0.0
 35
0.0
146
0.0
 13
0.0
 23
0.0
 33
0.0
 16
1.0
 26
0.0
 36
0.0
 17
0.0
 27
1.0
 37
0.0
 76
     0
330
1F
331
28BDD
  0
MATERIAL
  5
28BFB
102
{ACAD_XDICTIONARY
360
28BFC
102
}
102
{ACAD_REACTORS
330
A6AC
102
}
330
A6AC
100
AcDbMaterial
  1
ByBlock
 72
     0
 43
0.0208333333333333
 43
0.0
 43
0.0
 43
0.0
 43
0.0
 43
0.0208333333333333
 43
0.0
 43
0.0
 43
0.0
 43
0.0
 43
1.0
 43
0.0
 43
0.0
 43
0.0
 43
0.0
 43
1.0
 77
     0
 47
0.0208333333333333
 47
0.0
 47
0.0
 47
0.0
 47
0.0
 47
0.0208333333333333
 47
0.0
 47
0.0
 47
0.0
 47
0.0
 47
1.0
 47
0.0
 47
0.0
 47
0.0
 47
0.0
 47
1.0
171
     0
 49
0.0208333333333333
 49
0.0
 49
0.0
 49
0.0
 49
0.0
 49
0.0208333333333333
 49
0.0
 49
0.0
 49
0.0
 49
0.0
 49
1.0
 49
0.0
 49
0.0
 49
0.0
 49
0.0
 49
1.0
175
     0
142
0.0208333333333333
142
0.0
142
0.0
142
0.0
142
0.0
142
0.0208333333333333
142
0.0
142
0.0
142
0.0
142
0.0
142
1.0
142
0.0
142
0.0
142
0.0
142
0.0
142
1.0
179
     0
144
0.0208333333333333
144
0.0
144
0.0
144
0.0
144
0.0
144
0.0208333333333333
144
0.0
144
0.0
144
0.0
144
0.0
144
1.0
144
0.0
144
0.0
144
0.0
144
0.0
144
1.0
147
0.0208333333333333
147
0.0
147
0.0
147
0.0
147
0.0
147
0.0208333333333333
147
0.0
147
0.0
147
0.0
147
0.0
147
1.0
147
0.0
147
0.0
147
0.0
147
0.0
147
1.0
  0
MATERIAL
  5
28BF3
102
{ACAD_XDICTIONARY
360
28BF4
102
}
102
{ACAD_REACTORS
330
A6AC
102
}
330
A6AC
100
AcDbMaterial
  1
ByLayer
 72
     0
 43
0.0208333333333333
 43
0.0
 43
0.0
 43
0.0
 43
0.0
 43
0.0208333333333333
 43
0.0
 43
0.0
 43
0.0
 43
0.0
 43
1.0
 43
0.0
 43
0.0
 43
0.0
 43
0.0
 43
1.0
 77
     0
 47
0.0208333333333333
 47
0.0
 47
0.0
 47
0.0
 47
0.0
 47
0.0208333333333333
 47
0.0
 47
0.0
 47
0.0
 47
0.0
 47
1.0
 47
0.0
 47
0.0
 47
0.0
 47
0.0
 47
1.0
171
     0
 49
0.0208333333333333
 49
0.0
 49
0.0
 49
0.0
 49
0.0
 49
0.0208333333333333
 49
0.0
 49
0.0
 49
0.0
 49
0.0
 49
1.0
 49
0.0
 49
0.0
 49
0.0
 49
0.0
 49
1.0
175
     0
142
0.0208333333333333
142
0.0
142
0.0
142
0.0
142
0.0
142
0.0208333333333333
142
0.0
142
0.0
142
0.0
142
0.0
142
1.0
142
0.0
142
0.0
142
0.0
142
0.0
142
1.0
179
     0
144
0.0208333333333333
144
0.0
144
0.0
144
0.0
144
0.0
144
0.0208333333333333
144
0.0
144
0.0
144
0.0
144
0.0
144
1.0
144
0.0
144
0.0
144
0.0
144
0.0
144
1.0
147
0.0208333333333333
147
0.0
147
0.0
147
0.0
147
0.0
147
0.0208333333333333
147
0.0
147
0.0
147
0.0
147
0.0
147
1.0
147
0.0
147
0.0
147
0.0
147
0.0
147
1.0
  0
MATERIAL
  5
28C03
102
{ACAD_XDICTIONARY
360
28C04
102
}
102
{ACAD_REACTORS
330
A6AC
102
}
330
A6AC
100
AcDbMaterial
  1
Global
 72
     0
 43
0.0208333333333333
 43
0.0
 43
0.0
 43
0.0
 43
0.0
 43
0.0208333333333333
 43
0.0
 43
0.0
 43
0.0
 43
0.0
 43
1.0
 43
0.0
 43
0.0
 43
0.0
 43
0.0
 43
1.0
 77
     0
 47
0.0208333333333333
 47
0.0
 47
0.0
 47
0.0
 47
0.0
 47
0.0208333333333333
 47
0.0
 47
0.0
 47
0.0
 47
0.0
 47
1.0
 47
0.0
 47
0.0
 47
0.0
 47
0.0
 47
1.0
171
     0
 49
0.0208333333333333
 49
0.0
 49
0.0
 49
0.0
 49
0.0
 49
0.0208333333333333
 49
0.0
 49
0.0
 49
0.0
 49
0.0
 49
1.0
 49
0.0
 49
0.0
 49
0.0
 49
0.0
 49
1.0
175
     0
142
0.0208333333333333
142
0.0
142
0.0
142
0.0
142
0.0
142
0.0208333333333333
142
0.0
142
0.0
142
0.0
142
0.0
142
1.0
142
0.0
142
0.0
142
0.0
142
0.0
142
1.0
179
     0
144
0.0208333333333333
144
0.0
144
0.0
144
0.0
144
0.0
144
0.0208333333333333
144
0.0
144
0.0
144
0.0
144
0.0
144
1.0
144
0.0
144
0.0
144
0.0
144
0.0
144
1.0
147
0.0208333333333333
147
0.0
147
0.0
147
0.0
147
0.0
147
0.0208333333333333
147
0.0
147
0.0
147
0.0
147
0.0
147
1.0
147
0.0
147
0.0
147
0.0
147
0.0
147
1.0
  0
MLEADERSTYLE
  5
2A03C
102
{ACAD_REACTORS
330
28C40
102
}
330
28C40
100
AcDbMLeaderStyle
170
     2
171
     1
172
     0
 90
        2
 40
0.0
 41
0.0
173
     1
 91
-1056964608
340
14
 92
       -2
290
     1
 42
0.09
291
     1
 43
0.36
  3
Standard
 44
0.18
300

342
11
174
     1
178
     6
175
     1
176
     0
 93
-1056964608
 45
0.18
292
     0
297
     0
 46
0.18
 94
-1056964608
 47
1.0
 49
1.0
140
1.0
293
     1
141
0.0
294
     1
177
     0
142
1.0
295
     0
296
     0
143
0.125
1001
ACAD_MLEADERVER
1070
     2
  0
MLINESTYLE
  5
18
102
{ACAD_REACTORS
330
17
102
}
330
17
100
AcDbMlineStyle
  2
STANDARD
 70
     0
  3

 62
   256
 51
90.0
 52
90.0
 71
     2
 49
0.5
 62
   256
  6
BYLAYER
 49
-0.5
 62
   256
  6
BYLAYER
  0
PLOTSETTINGS
  5
CBD1
102
{ACAD_XDICTIONARY
360
2A06D
102
}
102
{ACAD_REACTORS
330
19
102
}
330
19
100
AcDbPlotSettings
  1
22x17 Xerox8830
  2
Xes 8830 for 2004.pc3
  4
ANSI_C_(22.00_x_17.00_Inches)
  6

 40
6.793749809265136
 41
6.793749809265136
 42
6.79376220703125
 43
6.79376220703125
 44
558.7999877929687
 45
431.7999877929687
 46
0.0
 47
35.81399999999999
 48
0.0
 49
0.0
140
0.0
141
0.0
142
1.0
143
1.49524349949159
 70
   692
 72
     0
 73
     0
 74
     1
  7
PellaCAD 2000.ctb
 75
     0
147
0.6687873917124656
148
-21.59157886640523
149
-6.230335335960706
  0
PLOTSETTINGS
  5
CBD0
102
{ACAD_XDICTIONARY
360
2A06B
102
}
102
{ACAD_REACTORS
330
19
102
}
330
19
100
AcDbPlotSettings
  1
22x34 Xerox8830
  2
Xes 8830 for 2004.pc3
  4
ANSI_D_(22.00_x_34.00_Inches)
  6

 40
6.793749809265136
 41
6.793749809265136
 42
6.79376220703125
 43
6.79376220703125
 44
558.7999877929687
 45
863.5999755859375
 46
13.462
 47
17.272
 48
0.0
 49
0.0
140
0.0
141
0.0
142
1.0
143
1.0
 70
   692
 72
     0
 73
     1
 74
     1
  7
PellaCAD 2000.ctb
 75
    16
147
1.0
148
-21.59157886640523
149
-6.230335335960706
  0
PLOTSETTINGS
  5
B30E
102
{ACAD_XDICTIONARY
360
2A063
102
}
102
{ACAD_REACTORS
330
19
102
}
330
19
100
AcDbPlotSettings
  1
8.5x11(row 1)
  2
\\pelsprnt02\PECSP13
  4
Letter
  6

 40
7.143749713897705
 41
5.027085304260253
 42
7.14373779296875
 43
5.027069091796875
 44
215.8999938964844
 45
279.3999938964844
 46
2.285999999999999
 47
3.556
 48
0.0
 49
0.0
140
0.0
141
0.0
142
1.0
143
1.0
 70
   692
 72
     0
 73
     0
 74
     1
  7
PellaCAD 2000.ctb
 75
    16
147
1.0
148
-4.158432903504825
149
-3.617288020760524
  0
PLOTSETTINGS
  5
BF67
102
{ACAD_XDICTIONARY
360
2A065
102
}
102
{ACAD_REACTORS
330
19
102
}
330
19
100
AcDbPlotSettings
  1
8.5x11(row 2)
  2
\\pelsprnt01\PEASP5
  4
User144
  6

 40
6.349999904632568
 41
4.233341693878173
 42
6.349990844726562
 43
4.23333740234375
 44
215.8999938964844
 45
279.3999938964844
 46
3.047999999999999
 47
4.318
 48
0.0
 49
0.0
140
0.0
141
0.0
142
1.0
143
1.0
 70
   692
 72
     0
 73
     0
 74
     1
  7
PellaCAD 2000.ctb
 75
    16
147
1.0
148
-4.158432903504825
149
-3.617288020760524
  0
PLOTSETTINGS
  5
BF68
102
{ACAD_XDICTIONARY
360
2A067
102
}
102
{ACAD_REACTORS
330
19
102
}
330
19
100
AcDbPlotSettings
  1
8.5x11(row 3)
  2
\\pelsprnt01\peslp0
  4
Letter
  6

 40
5.365749835968017
 41
5.408084392547607
 42
5.4080810546875
 43
5.365753173828125
 44
215.8999938964844
 45
279.3999938964844
 46
4.064
 47
3.302
 48
0.0
 49
0.0
140
0.0
141
0.0
142
1.0
143
1.0
 70
   692
 72
     0
 73
     0
 74
     1
  7
PellaCAD 2000.ctb
 75
    16
147
1.0
148
-4.158432903504825
149
-3.617288020760524
  0
PLOTSETTINGS
  5
BF69
102
{ACAD_XDICTIONARY
360
2A069
102
}
102
{ACAD_REACTORS
330
19
102
}
330
19
100
AcDbPlotSettings
  1
8.5x11(row 4)
  2
\\pelsprnt02\PEASP6
  4
Letter
  6

 40
7.143749713897705
 41
5.027085304260253
 42
7.14373779296875
 43
5.027069091796875
 44
215.8999938964844
 45
279.3999938964844
 46
2.285999999999999
 47
3.556
 48
0.0
 49
0.0
140
0.0
141
0.0
142
1.0
143
1.0
 70
   692
 72
     0
 73
     0
 74
     1
  7
PellaCAD 2000.ctb
 75
    16
147
1.0
148
-4.158432903504825
149
-3.617288020760524
  0
ACDBPLACEHOLDER
  5
F
102
{ACAD_REACTORS
330
E
102
}
330
E
  0
SCALE
  5
28C60
102
{ACAD_REACTORS
330
28C1E
102
}
330
28C1E
100
AcDbScale
 70
     0
300
1.5:1
140
1.0
141
1.0
290
     0
  0
SCALE
  5
28C61
102
{ACAD_REACTORS
330
28C1E
102
}
330
28C1E
100
AcDbScale
 70
     0
300
3:1
140
3.0
141
1.0
290
     0
  0
SCALE
  5
28C62
102
{ACAD_REACTORS
330
28C1E
102
}
330
28C1E
100
AcDbScale
 70
     0
300
5:1
140
5.0
141
1.0
290
     0
  0
SCALE
  5
28C63
102
{ACAD_REACTORS
330
28C1E
102
}
330
28C1E
100
AcDbScale
 70
     0
300
1 1/2" = 1'-0"_XREF
140
1.5
141
12.0
290
     0
  0
SCALE
  5
28C64
102
{ACAD_REACTORS
330
28C1E
102
}
330
28C1E
100
AcDbScale
 70
     0
300
1" = 1'
140
1.0
141
1.0
290
     0
  0
SCALE
  5
28C1F
102
{ACAD_REACTORS
330
28C1E
102
}
330
28C1E
100
AcDbScale
 70
     0
300
1:1
140
1.0
141
1.0
290
     1
  0
SCALE
  5
28C20
102
{ACAD_REACTORS
330
28C1E
102
}
330
28C1E
100
AcDbScale
 70
     0
300
1:2
140
1.0
141
2.0
290
     0
  0
SCALE
  5
28C21
102
{ACAD_REACTORS
330
28C1E
102
}
330
28C1E
100
AcDbScale
 70
     0
300
1:4
140
1.0
141
4.0
290
     0
  0
SCALE
  5
28C22
102
{ACAD_REACTORS
330
28C1E
102
}
330
28C1E
100
AcDbScale
 70
     0
300
1:5
140
1.0
141
5.0
290
     0
  0
SCALE
  5
28C23
102
{ACAD_REACTORS
330
28C1E
102
}
330
28C1E
100
AcDbScale
 70
     0
300
1:8
140
1.0
141
8.0
290
     0
  0
SCALE
  5
28C24
102
{ACAD_REACTORS
330
28C1E
102
}
330
28C1E
100
AcDbScale
 70
     0
300
1:10
140
1.0
141
10.0
290
     0
  0
SCALE
  5
28C25
102
{ACAD_REACTORS
330
28C1E
102
}
330
28C1E
100
AcDbScale
 70
     0
300
1:16
140
1.0
141
16.0
290
     0
  0
SCALE
  5
28C26
102
{ACAD_REACTORS
330
28C1E
102
}
330
28C1E
100
AcDbScale
 70
     0
300
1:20
140
1.0
141
20.0
290
     0
  0
SCALE
  5
28C27
102
{ACAD_REACTORS
330
28C1E
102
}
330
28C1E
100
AcDbScale
 70
     0
300
1:30
140
1.0
141
30.0
290
     0
  0
SCALE
  5
28C28
102
{ACAD_REACTORS
330
28C1E
102
}
330
28C1E
100
AcDbScale
 70
     0
300
1:40
140
1.0
141
40.0
290
     0
  0
SCALE
  5
28C29
102
{ACAD_REACTORS
330
28C1E
102
}
330
28C1E
100
AcDbScale
 70
     0
300
1:50
140
1.0
141
50.0
290
     0
  0
SCALE
  5
28C2A
102
{ACAD_REACTORS
330
28C1E
102
}
330
28C1E
100
AcDbScale
 70
     0
300
1:100
140
1.0
141
100.0
290
     0
  0
SCALE
  5
28C2B
102
{ACAD_REACTORS
330
28C1E
102
}
330
28C1E
100
AcDbScale
 70
     0
300
2:1
140
2.0
141
1.0
290
     0
  0
SCALE
  5
28C2C
102
{ACAD_REACTORS
330
28C1E
102
}
330
28C1E
100
AcDbScale
 70
     0
300
4:1
140
4.0
141
1.0
290
     0
  0
SCALE
  5
28C2D
102
{ACAD_REACTORS
330
28C1E
102
}
330
28C1E
100
AcDbScale
 70
     0
300
8:1
140
8.0
141
1.0
290
     0
  0
SCALE
  5
28C2E
102
{ACAD_REACTORS
330
28C1E
102
}
330
28C1E
100
AcDbScale
 70
     0
300
10:1
140
10.0
141
1.0
290
     0
  0
SCALE
  5
28C2F
102
{ACAD_REACTORS
330
28C1E
102
}
330
28C1E
100
AcDbScale
 70
     0
300
100:1
140
100.0
141
1.0
290
     0
  0
SCALE
  5
28C30
102
{ACAD_REACTORS
330
28C1E
102
}
330
28C1E
100
AcDbScale
 70
     0
300
1/128" = 1'-0"
140
0.0078125
141
12.0
290
     0
  0
SCALE
  5
28C31
102
{ACAD_REACTORS
330
28C1E
102
}
330
28C1E
100
AcDbScale
 70
     0
300
1/64" = 1'-0"
140
0.015625
141
12.0
290
     0
  0
SCALE
  5
28C32
102
{ACAD_REACTORS
330
28C1E
102
}
330
28C1E
100
AcDbScale
 70
     0
300
1/32" = 1'-0"
140
0.03125
141
12.0
290
     0
  0
SCALE
  5
28C33
102
{ACAD_REACTORS
330
28C1E
102
}
330
28C1E
100
AcDbScale
 70
     0
300
1/16" = 1'-0"
140
0.0625
141
12.0
290
     0
  0
SCALE
  5
28C34
102
{ACAD_REACTORS
330
28C1E
102
}
330
28C1E
100
AcDbScale
 70
     0
300
3/32" = 1'-0"
140
0.09375
141
12.0
290
     0
  0
SCALE
  5
28C35
102
{ACAD_REACTORS
330
28C1E
102
}
330
28C1E
100
AcDbScale
 70
     0
300
1/8" = 1'-0"
140
0.125
141
12.0
290
     0
  0
SCALE
  5
28C36
102
{ACAD_REACTORS
330
28C1E
102
}
330
28C1E
100
AcDbScale
 70
     0
300
3/16" = 1'-0"
140
0.1875
141
12.0
290
     0
  0
SCALE
  5
28C37
102
{ACAD_REACTORS
330
28C1E
102
}
330
28C1E
100
AcDbScale
 70
     0
300
1/4" = 1'-0"
140
0.25
141
12.0
290
     0
  0
SCALE
  5
28C38
102
{ACAD_REACTORS
330
28C1E
102
}
330
28C1E
100
AcDbScale
 70
     0
300
3/8" = 1'-0"
140
0.375
141
12.0
290
     0
  0
SCALE
  5
28C39
102
{ACAD_REACTORS
330
28C1E
102
}
330
28C1E
100
AcDbScale
 70
     0
300
1/2" = 1'-0"
140
0.5
141
12.0
290
     0
  0
SCALE
  5
28C3A
102
{ACAD_REACTORS
330
28C1E
102
}
330
28C1E
100
AcDbScale
 70
     0
300
3/4" = 1'-0"
140
0.75
141
12.0
290
     0
  0
SCALE
  5
28C3B
102
{ACAD_REACTORS
330
28C1E
102
}
330
28C1E
100
AcDbScale
 70
     0
300
1" = 1'-0"
140
1.0
141
12.0
290
     0
  0
SCALE
  5
28C3C
102
{ACAD_REACTORS
330
28C1E
102
}
330
28C1E
100
AcDbScale
 70
     0
300
1-1/2" = 1'-0"
140
1.5
141
12.0
290
     0
  0
SCALE
  5
28C3D
102
{ACAD_REACTORS
330
28C1E
102
}
330
28C1E
100
AcDbScale
 70
     0
300
3" = 1'-0"
140
3.0
141
12.0
290
     0
  0
SCALE
  5
28C3E
102
{ACAD_REACTORS
330
28C1E
102
}
330
28C1E
100
AcDbScale
 70
     0
300
6" = 1'-0"
140
6.0
141
12.0
290
     0
  0
SCALE
  5
28C3F
102
{ACAD_REACTORS
330
28C1E
102
}
330
28C1E
100
AcDbScale
 70
     0
300
1'-0" = 1'-0"
140
12.0
141
12.0
290
     0
  0
TABLESTYLE
  5
28C1D
102
{ACAD_XDICTIONARY
360
28E70
102
}
102
{ACAD_REACTORS
330
28C1C
102
}
330
28C1C
100
AcDbTableStyle
  3
Standard
 70
     0
 71
     0
 40
0.06
 41
0.06
280
     0
281
     0
  7
Standard
140
0.18
170
     2
 62
     0
 63
     7
283
     0
274
    -2
284
     1
 64
     0
275
    -2
285
     1
 65
     0
276
    -2
286
     1
 66
     0
277
    -2
287
     1
 67
     0
278
    -2
288
     1
 68
     0
279
    -2
289
     1
 69
     0
  7
Standard
140
0.25
170
     5
 62
     0
 63
     7
283
     0
274
    -2
284
     1
 64
     0
275
    -2
285
     1
 65
     0
276
    -2
286
     1
 66
     0
277
    -2
287
     1
 67
     0
278
    -2
288
     1
 68
     0
279
    -2
289
     1
 69
     0
  7
Standard
140
0.18
170
     5
 62
     0
 63
     7
283
     0
274
    -2
284
     1
 64
     0
275
    -2
285
     1
 65
     0
276
    -2
286
     1
 66
     0
277
    -2
287
     1
 67
     0
278
    -2
288
     1
 68
     0
279
    -2
289
     1
 69
     0
  0
VISUALSTYLE
  5
28C11
102
{ACAD_REACTORS
330
28C0B
102
}
330
28C0B
100
AcDbVisualStyle
  2
2dWireframe
 70
     4
 71
     0
 72
     2
 73
     0
 90
        0
 40
-0.6
 41
-30.0
 62
     5
 63
     7
 74
     1
 91
        4
 64
     7
 65
   257
 75
     1
175
     1
 42
1.0
 92
        0
 66
   257
 43
1.0
 76
     1
 77
     6
 78
     2
 67
     7
 79
     5
170
     0
171
     0
290
     0
174
     0
 93
        1
 44
0.0
173
     0
291
     0
 45
0.0
1001
ACAD
1000
AcDbSavedByObjectVersion
1070
     0
  0
VISUALSTYLE
  5
28C13
102
{ACAD_REACTORS
330
28C0B
102
}
330
28C0B
100
AcDbVisualStyle
  2
3D Hidden
 70
     6
 71
     1
 72
     2
 73
     2
 90
        0
 40
-0.6
 41
-30.0
 62
     5
 63
     7
 74
     2
 91
        2
 64
     7
 65
   257
 75
     2
175
     1
 42
40.0
 92
        0
 66
   257
 43
1.0
 76
     1
 77
     6
 78
     2
 67
     7
 79
     3
170
     0
171
     0
290
     0
174
     0
 93
        1
 44
0.0
173
     0
291
     0
 45
0.0
1001
ACAD
1000
AcDbSavedByObjectVersion
1070
     0
  0
VISUALSTYLE
  5
28C12
102
{ACAD_REACTORS
330
28C0B
102
}
330
28C0B
100
AcDbVisualStyle
  2
3dWireframe
 70
     5
 71
     0
 72
     2
 73
     0
 90
        0
 40
-0.6
 41
-30.0
 62
     5
 63
     7
 74
     1
 91
        4
 64
     7
 65
   257
 75
     1
175
     1
 42
1.0
 92
        0
 66
   257
 43
1.0
 76
     1
 77
     6
 78
     2
 67
     7
 79
     5
170
     0
171
     0
290
     0
174
     0
 93
        1
 44
0.0
173
     0
291
     0
 45
0.0
1001
ACAD
1000
AcDbSavedByObjectVersion
1070
     0
  0
VISUALSTYLE
  5
28C10
102
{ACAD_REACTORS
330
28C0B
102
}
330
28C0B
100
AcDbVisualStyle
  2
Basic
 70
     7
 71
     1
 72
     0
 73
     1
 90
        0
 40
-0.6
 41
-30.0
 62
     5
 63
     7
 74
     0
 91
        4
 64
     7
 65
   257
 75
     1
175
     1
 42
1.0
 92
        8
 66
     7
 43
1.0
 76
     1
 77
     6
 78
     2
 67
     7
 79
     5
170
     0
171
     0
290
     0
174
     0
 93
        1
 44
0.0
173
     0
291
     1
 45
0.0
1001
ACAD
1000
AcDbSavedByObjectVersion
1070
     0
  0
VISUALSTYLE
  5
28C17
102
{ACAD_REACTORS
330
28C0B
102
}
330
28C0B
100
AcDbVisualStyle
  2
Brighten
 70
    12
 71
     2
 72
     2
 73
     0
 90
        0
 40
-0.6
 41
-30.0
 62
     5
 63
     7
 74
     1
 91
        4
 64
     7
 65
   257
 75
     1
175
     1
 42
1.0
 92
        8
 66
     7
 43
1.0
 76
     1
 77
     6
 78
     2
 67
     7
 79
     5
170
     0
171
     0
290
     0
174
     0
 93
        1
 44
50.0
173
     0
291
     1
 45
0.0
1001
ACAD
1000
AcDbSavedByObjectVersion
1070
     0
  0
VISUALSTYLE
  5
28C1B
102
{ACAD_REACTORS
330
28C0B
102
}
330
28C0B
100
AcDbVisualStyle
  2
ColorChange
 70
    16
 71
     2
 72
     2
 73
     3
 90
        0
 40
-0.6
 41
-30.0
 62
     5
 63
     8
 74
     1
 91
        4
 64
     7
 65
   257
 75
     1
175
     1
 42
1.0
 92
        8
 66
     8
 43
1.0
 76
     1
 77
     6
 78
     2
 67
     7
 79
     5
170
     0
171
     0
290
     0
174
     0
 93
        1
 44
0.0
173
     0
291
     1
 45
0.0
1001
ACAD
1000
AcDbSavedByObjectVersion
1070
     0
  0
VISUALSTYLE
  5
28C14
102
{ACAD_REACTORS
330
28C0B
102
}
330
28C0B
100
AcDbVisualStyle
  2
Conceptual
 70
     9
 71
     3
 72
     2
 73
     0
 90
        0
 40
-0.6
 41
-30.0
 62
     5
 63
     7
 74
     2
 91
        2
 64
     7
 65
   257
 75
     1
175
     1
 42
40.0
 92
        8
 66
     7
 43
1.0
 76
     1
 77
     6
 78
     2
 67
     7
 79
     3
170
     0
171
     0
290
     0
174
     0
 93
        1
 44
0.0
173
     0
291
     0
 45
0.0
1001
ACAD
1000
AcDbSavedByObjectVersion
1070
     0
  0
VISUALSTYLE
  5
28C16
102
{ACAD_REACTORS
330
28C0B
102
}
330
28C0B
100
AcDbVisualStyle
  2
Dim
 70
    11
 71
     2
 72
     2
 73
     0
 90
        0
 40
-0.6
 41
-30.0
 62
     5
 63
     7
 74
     1
 91
        4
 64
     7
 65
   257
 75
     1
175
     1
 42
1.0
 92
        8
 66
     7
 43
1.0
 76
     1
 77
     6
 78
     2
 67
     7
 79
     5
170
     0
171
     0
290
     0
174
     0
 93
        1
 44
-50.0
173
     0
291
     1
 45
0.0
1001
ACAD
1000
AcDbSavedByObjectVersion
1070
     0
  0
VISUALSTYLE
  5
28C1A
102
{ACAD_REACTORS
330
28C0B
102
}
330
28C0B
100
AcDbVisualStyle
  2
Facepattern
 70
    15
 71
     2
 72
     2
 73
     0
 90
        0
 40
-0.6
 41
-30.0
 62
     5
 63
     7
 74
     1
 91
        4
 64
     7
 65
   257
 75
     1
175
     1
 42
1.0
 92
        8
 66
     7
 43
1.0
 76
     1
 77
     6
 78
     2
 67
     7
 79
     5
170
     0
171
     0
290
     0
174
     0
 93
        1
 44
0.0
173
     0
291
     1
 45
0.0
1001
ACAD
1000
AcDbSavedByObjectVersion
1070
     0
  0
VISUALSTYLE
  5
28C0C
102
{ACAD_REACTORS
330
28C0B
102
}
330
28C0B
100
AcDbVisualStyle
  2
Flat
 70
     0
 71
     2
 72
     1
 73
     1
 90
        2
 40
-0.6
 41
30.0
 62
     5
 63
     7
 74
     0
 91
        4
 64
     7
 65
   257
 75
     1
175
     1
 42
1.0
 92
        8
 66
     7
 43
1.0
 76
     1
 77
     6
 78
     2
 67
     7
 79
     5
170
     0
171
     0
290
     0
174
     0
 93
       13
 44
0.0
173
     0
291
     1
 45
0.0
1001
ACAD
1000
AcDbSavedByObjectVersion
1070
     0
  0
VISUALSTYLE
  5
28C0D
102
{ACAD_REACTORS
330
28C0B
102
}
330
28C0B
100
AcDbVisualStyle
  2
FlatWithEdges
 70
     1
 71
     2
 72
     1
 73
     1
 90
        2
 40
-0.6
 41
30.0
 62
     5
 63
     7
 74
     1
 91
        4
 64
     7
 65
   257
 75
     1
175
     1
 42
1.0
 92
        0
 66
   257
 43
1.0
 76
     1
 77
     6
 78
     2
 67
     7
 79
     5
170
     0
171
     0
290
     0
174
     0
 93
       13
 44
0.0
173
     0
291
     1
 45
0.0
1001
ACAD
1000
AcDbSavedByObjectVersion
1070
     0
  0
VISUALSTYLE
  5
28C0E
102
{ACAD_REACTORS
330
28C0B
102
}
330
28C0B
100
AcDbVisualStyle
  2
Gouraud
 70
     2
 71
     2
 72
     2
 73
     1
 90
        2
 40
-0.6
 41
30.0
 62
     5
 63
     7
 74
     0
 91
        4
 64
     7
 65
   257
 75
     1
175
     1
 42
1.0
 92
        0
 66
     7
 43
1.0
 76
     1
 77
     6
 78
     2
 67
     7
 79
     5
170
     0
171
     0
290
     0
174
     0
 93
       13
 44
0.0
173
     0
291
     1
 45
0.0
1001
ACAD
1000
AcDbSavedByObjectVersion
1070
     0
  0
VISUALSTYLE
  5
28C0F
102
{ACAD_REACTORS
330
28C0B
102
}
330
28C0B
100
AcDbVisualStyle
  2
GouraudWithEdges
 70
     3
 71
     2
 72
     2
 73
     1
 90
        2
 40
-0.6
 41
30.0
 62
     5
 63
     7
 74
     1
 91
        4
 64
     7
 65
   257
 75
     1
175
     1
 42
1.0
 92
        0
 66
   257
 43
1.0
 76
     1
 77
     6
 78
     2
 67
     7
 79
     5
170
     0
171
     0
290
     0
174
     0
 93
       13
 44
0.0
173
     0
291
     1
 45
0.0
1001
ACAD
1000
AcDbSavedByObjectVersion
1070
     0
  0
VISUALSTYLE
  5
28C19
102
{ACAD_REACTORS
330
28C0B
102
}
330
28C0B
100
AcDbVisualStyle
  2
Linepattern
 70
    14
 71
     2
 72
     2
 73
     0
 90
        0
 40
-0.6
 41
-30.0
 62
     5
 63
     7
 74
     1
 91
        4
 64
     7
 65
   257
 75
     7
175
     7
 42
1.0
 92
        8
 66
     7
 43
1.0
 76
     1
 77
     6
 78
     2
 67
     7
 79
     5
170
     0
171
     0
290
     0
174
     0
 93
        1
 44
0.0
173
     0
291
     1
 45
0.0
1001
ACAD
1000
AcDbSavedByObjectVersion
1070
     0
  0
VISUALSTYLE
  5
28C15
102
{ACAD_REACTORS
330
28C0B
102
}
330
28C0B
100
AcDbVisualStyle
  2
Realistic
 70
     8
 71
     2
 72
     2
 73
     0
 90
        0
 40
-0.6
 41
-30.0
 62
     5
 63
     7
 74
     1
 91
        0
 64
     7
 65
   257
 75
     1
175
     1
 42
1.0
 92
        8
 66
     8
 43
1.0
 76
     1
 77
     6
 78
     2
 67
     7
 79
     5
170
     0
171
     0
290
     0
174
     0
 93
       13
 44
0.0
173
     0
291
     0
 45
0.0
1001
ACAD
1000
AcDbSavedByObjectVersion
1070
     0
  0
VISUALSTYLE
  5
28C18
102
{ACAD_REACTORS
330
28C0B
102
}
330
28C0B
100
AcDbVisualStyle
  2
Thicken
 70
    13
 71
     2
 72
     2
 73
     0
 90
        0
 40
-0.6
 41
-30.0
 62
     5
 63
     7
 74
     1
 91
        4
 64
     7
 65
   257
 75
     1
175
     1
 42
1.0
 92
       12
 66
     7
 43
1.0
 76
     1
 77
     6
 78
     2
 67
     7
 79
     5
170
     0
171
     0
290
     0
174
     0
 93
        1
 44
0.0
173
     0
291
     1
 45
0.0
1001
ACAD
1000
AcDbSavedByObjectVersion
1070
     0
  0
DICTIONARYVAR
  5
28E76
102
{ACAD_REACTORS
330
79D9
102
}
330
79D9
100
DictionaryVariables
280
     0
  1
1:1
  0
DICTIONARYVAR
  5
28E74
102
{ACAD_REACTORS
330
79D9
102
}
330
79D9
100
DictionaryVariables
280
     0
  1
STANDARD
  0
DICTIONARYVAR
  5
28E73
102
{ACAD_REACTORS
330
79D9
102
}
330
79D9
100
DictionaryVariables
280
     0
  1
STANDARD
  0
DICTIONARYVAR
  5
79DA
102
{ACAD_REACTORS
330
79D9
102
}
330
79D9
100
DictionaryVariables
280
     0
  1
1
  0
DICTIONARYVAR
  5
2A05E
102
{ACAD_REACTORS
330
79D9
102
}
330
79D9
100
DictionaryVariables
280
     0
  1
0
  0
DICTIONARYVAR
  5
28E77
102
{ACAD_REACTORS
330
79D9
102
}
330
79D9
100
DictionaryVariables
280
     0
  1
0
  0
DICTIONARYVAR
  5
28E75
102
{ACAD_REACTORS
330
79D9
102
}
330
79D9
100
DictionaryVariables
280
     0
  1
0
  0
DICTIONARYVAR
  5
13601
102
{ACAD_REACTORS
330
79D9
102
}
330
79D9
100
DictionaryVariables
280
     0
  1

  0
DICTIONARYVAR
  5
2A05D
102
{ACAD_REACTORS
330
79D9
102
}
330
79D9
100
DictionaryVariables
280
     0
  1
127
  0
XRECORD
  5
1047
102
{ACAD_REACTORS
330
1012
102
}
330
1012
100
AcDbXrecord
280
     1
1000
ADE02C001
1070
     1
1070
     0
1002
{
1002
}
1002
{
1002
}
1002
{
1002
}
1000

  0
ACAD_PROXY_OBJECT
  5
1BA
102
{ACAD_REACTORS
330
1B9
102
}
330
1B9
100
AcDbProxyObject
 90
      499
 91
      504
 95
       23
 70
     0
 93
       51
310
4050289602645F
 94
        0
1001
ACAD
1000
AcRTDxfName
1000
AMLOADER
1000
AcRTDxfName
1000
AMLOADER
1000
AcRTDxfName
1000
AMLOADER
1000
AcRTDxfName
1000
AMLOADER
1000
AcRTDxfName
1000
AMLOADER
1000
AcRTDxfName
1000
AMLOADER
1000
AcRTDxfName
1000
AMLOADER
1000
AcRTDxfName
1000
AMLOADER
1000
AcRTDxfName
1000
AMLOADER
1000
AcRTDxfName
1000
AMLOADER
1000
AcRTDxfName
1000
AMLOADER
1000
AcRTDxfName
1000
AMLOADER
1000
AcRTDxfName
1000
AMLOADER
1000
AcRTDxfName
1000
AMLOADER
1000
AcRTDxfName
1000
AMLOADER
1000
AcRTDxfName
1000
AMLOADER
1000
AcRTDxfName
1000
AMLOADER
1000
AcRTDxfName
1000
AMLOADER
1000
AcRTDxfName
1000
AMLOADER
1000
AcRTDxfName
1000
AMLOADER
1000
AcRTDxfName
1000
AMLOADER
1000
AcRTDxfName
1000
AMLOADER
1000
AcRTDxfName
1000
AMLOADER
1000
AcRTDxfName
1000
AMLOADER
1000
AcRTDxfName
1000
AMLOADER
1000
AcRTDxfName
1000
AMLOADER
1000
AcRTDxfName
1000
AMLOADER
1000
AcRTDxfName
1000
AMLOADER
1000
AcRTDxfName
1000
AMLOADER
1000
AcRTDxfName
1000
AMLOADER
1000
AcRTDxfName
1000
AMLOADER
1000
AcRTDxfName
1000
AMLOADER
1000
AcRTDxfName
1000
AMLOADER
1000
AcRTDxfName
1000
AMLOADER
1000
AcRTDxfName
1000
AMLOADER
1000
AcRTDxfName
1000
AMLOADER
1000
AcRTDxfName
1000
AMLOADER
1000
AcRTDxfName
1000
AMLOADER
1000
AcRTDxfName
1000
AMLOADER
1000
AcRTDxfName
1000
AMLOADER
1000
AcRTDxfName
1000
AMLOADER
1000
AcRTDxfName
1000
AMLOADER
  0
XRECORD
  5
133E0
102
{ACAD_REACTORS
330
133DF
102
}
330
133DF
100
AcDbXrecord
280
     1
330
0
330
0
330
0
330
0
330
0
330
0
330
0
330
0
330
0
330
0
330
0
330
0
330
0
330
0
330
0
330
0
330
0
330
0
330
0
330
0
330
0
330
0
330
0
330
0
330
0
330
0
330
0
330
0
330
0
330
0
330
0
330
0
330
0
330
0
330
0
330
0
330
0
330
0
330
0
330
0
330
0
330
0
330
0
330
0
330
0
330
0
330
0
330
0
330
0
330
0
330
0
330
0
330
0
330
0
330
0
330
0
330
0
330
0
330
0
330
0
330
0
330
0
330
0
330
0
330
0
330
0
330
0
330
0
330
0
330
0
330
0
330
0
330
0
330
0
330
0
330
0
330
0
330
0
330
0
330
0
330
0
330
0
330
0
330
0
330
0
330
0
330
0
330
0
330
0
330
0
330
0
330
0
330
0
330
0
330
0
330
0
330
0
330
0
330
0
330
0
330
0
330
0
330
0
330
0
330
0
330
0
330
0
330
0
330
0
330
0
330
0
330
0
330
0
330
0
330
0
330
0
330
0
330
0
330
0
330
0
330
0
330
0
330
0
330
0
330
0
330
0
330
0
330
0
330
0
330
0
330
0
330
0
330
0
330
0
330
0
330
0
330
0
  0
DICTIONARY
  5
2A06F
330
1355A
100
AcDbDictionary
280
     1
281
     1
  3
ACAD_XREC_ROUNDTRIP
360
2A070
  0
DICTIONARY
  5
2A061
330
22
100
AcDbDictionary
280
     1
281
     1
  3
ACAD_XREC_ROUNDTRIP
360
2A062
  0
DICTIONARY
  5
28BFC
330
28BFB
100
AcDbDictionary
280
     1
281
     1
  3
ACAD_XREC_ROUNDTRIP
360
2A072
  3
BUMPTILE
360
28BFE
  3
DIFFUSETILE
360
28BFD
  3
OPACITYTILE
360
28C01
  3
REFLECTIONTILE
360
28C00
  3
REFRACTIONTILE
360
28C02
  3
SPECULARTILE
360
28BFF
  0
DICTIONARY
  5
28BF4
330
28BF3
100
AcDbDictionary
280
     1
281
     1
  3
ACAD_XREC_ROUNDTRIP
360
2A071
  3
BUMPTILE
360
28BF6
  3
DIFFUSETILE
360
28BF5
  3
OPACITYTILE
360
28BF9
  3
REFLECTIONTILE
360
28BF8
  3
REFRACTIONTILE
360
28BFA
  3
SPECULARTILE
360
28BF7
  0
DICTIONARY
  5
28C04
330
28C03
100
AcDbDictionary
280
     1
281
     1
  3
ACAD_XREC_ROUNDTRIP
360
2A073
  3
BUMPTILE
360
28C06
  3
DIFFUSETILE
360
28C05
  3
OPACITYTILE
360
28C09
  3
REFLECTIONTILE
360
28C08
  3
REFRACTIONTILE
360
28C0A
  3
SPECULARTILE
360
28C07
  0
DICTIONARY
  5
2A06D
330
CBD1
100
AcDbDictionary
280
     1
281
     1
  3
ACAD_XREC_ROUNDTRIP
360
2A06E
  0
DICTIONARY
  5
2A06B
330
CBD0
100
AcDbDictionary
280
     1
281
     1
  3
ACAD_XREC_ROUNDTRIP
360
2A06C
  0
DICTIONARY
  5
2A063
330
B30E
100
AcDbDictionary
280
     1
281
     1
  3
ACAD_XREC_ROUNDTRIP
360
2A064
  0
DICTIONARY
  5
2A065
330
BF67
100
AcDbDictionary
280
     1
281
     1
  3
ACAD_XREC_ROUNDTRIP
360
2A066
  0
DICTIONARY
  5
2A067
330
BF68
100
AcDbDictionary
280
     1
281
     1
  3
ACAD_XREC_ROUNDTRIP
360
2A068
  0
DICTIONARY
  5
2A069
330
BF69
100
AcDbDictionary
280
     1
281
     1
  3
ACAD_XREC_ROUNDTRIP
360
2A06A
  0
DICTIONARY
  5
28E70
330
28C1D
100
AcDbDictionary
280
     1
281
     1
  3
ACAD_ROUNDTRIP_2008_TABLESTYLE_CELLSTYLEMAP
360
2A05F
  3
ACAD_XREC_ROUNDTRIP
360
2A074
  0
XRECORD
  5
2A070
102
{ACAD_REACTORS
330
2A06F
102
}
330
2A06F
100
AcDbXrecord
280
     1
102
SHADEPLOT
 70
     0
102
SHADEPLOTRESLEVEL
 70
     2
102
SHADEPLOTCUSTOMDPI
 70
   300
  0
XRECORD
  5
2A062
102
{ACAD_REACTORS
330
2A061
102
}
330
2A061
100
AcDbXrecord
280
     1
102
SHADEPLOT
 70
     0
102
SHADEPLOTRESLEVEL
 70
     2
102
SHADEPLOTCUSTOMDPI
 70
   300
  0
XRECORD
  5
2A072
102
{ACAD_REACTORS
330
28BFC
102
}
330
28BFC
100
AcDbXrecord
280
     1
102
MATERIAL
148
0.0
149
0.0
149
0.0
 93
        0
 94
      127
282
     0
 72
     0
 77
     0
171
     0
175
     0
179
     0
273
     0
  0
XRECORD
  5
28BFE
102
{ACAD_REACTORS
330
28BFC
102
}
330
28BFC
100
AcDbXrecord
280
     1
270
     1
271
     1
  0
XRECORD
  5
28BFD
102
{ACAD_REACTORS
330
28BFC
102
}
330
28BFC
100
AcDbXrecord
280
     1
270
     1
271
     1
  0
XRECORD
  5
28C01
102
{ACAD_REACTORS
330
28BFC
102
}
330
28BFC
100
AcDbXrecord
280
     1
270
     1
271
     1
  0
XRECORD
  5
28C00
102
{ACAD_REACTORS
330
28BFC
102
}
330
28BFC
100
AcDbXrecord
280
     1
270
     1
271
     1
  0
XRECORD
  5
28C02
102
{ACAD_REACTORS
330
28BFC
102
}
330
28BFC
100
AcDbXrecord
280
     1
270
     1
271
     1
  0
XRECORD
  5
28BFF
102
{ACAD_REACTORS
330
28BFC
102
}
330
28BFC
100
AcDbXrecord
280
     1
270
     1
271
     1
  0
XRECORD
  5
2A071
102
{ACAD_REACTORS
330
28BF4
102
}
330
28BF4
100
AcDbXrecord
280
     1
102
MATERIAL
148
0.0
149
0.0
149
0.0
 93
        0
 94
      127
282
     0
 72
     0
 77
     0
171
     0
175
     0
179
     0
273
     0
  0
XRECORD
  5
28BF6
102
{ACAD_REACTORS
330
28BF4
102
}
330
28BF4
100
AcDbXrecord
280
     1
270
     1
271
     1
  0
XRECORD
  5
28BF5
102
{ACAD_REACTORS
330
28BF4
102
}
330
28BF4
100
AcDbXrecord
280
     1
270
     1
271
     1
  0
XRECORD
  5
28BF9
102
{ACAD_REACTORS
330
28BF4
102
}
330
28BF4
100
AcDbXrecord
280
     1
270
     1
271
     1
  0
XRECORD
  5
28BF8
102
{ACAD_REACTORS
330
28BF4
102
}
330
28BF4
100
AcDbXrecord
280
     1
270
     1
271
     1
  0
XRECORD
  5
28BFA
102
{ACAD_REACTORS
330
28BF4
102
}
330
28BF4
100
AcDbXrecord
280
     1
270
     1
271
     1
  0
XRECORD
  5
28BF7
102
{ACAD_REACTORS
330
28BF4
102
}
330
28BF4
100
AcDbXrecord
280
     1
270
     1
271
     1
  0
XRECORD
  5
2A073
102
{ACAD_REACTORS
330
28C04
102
}
330
28C04
100
AcDbXrecord
280
     1
102
MATERIAL
148
0.0
149
0.0
149
0.0
 93
        0
 94
      127
282
     0
 72
     0
 77
     0
171
     0
175
     0
179
     0
273
     0
  0
XRECORD
  5
28C06
102
{ACAD_REACTORS
330
28C04
102
}
330
28C04
100
AcDbXrecord
280
     1
270
     1
271
     1
  0
XRECORD
  5
28C05
102
{ACAD_REACTORS
330
28C04
102
}
330
28C04
100
AcDbXrecord
280
     1
270
     1
271
     1
  0
XRECORD
  5
28C09
102
{ACAD_REACTORS
330
28C04
102
}
330
28C04
100
AcDbXrecord
280
     1
270
     1
271
     1
  0
XRECORD
  5
28C08
102
{ACAD_REACTORS
330
28C04
102
}
330
28C04
100
AcDbXrecord
280
     1
270
     1
271
     1
  0
XRECORD
  5
28C0A
102
{ACAD_REACTORS
330
28C04
102
}
330
28C04
100
AcDbXrecord
280
     1
270
     1
271
     1
  0
XRECORD
  5
28C07
102
{ACAD_REACTORS
330
28C04
102
}
330
28C04
100
AcDbXrecord
280
     1
270
     1
271
     1
  0
XRECORD
  5
2A06E
102
{ACAD_REACTORS
330
2A06D
102
}
330
2A06D
100
AcDbXrecord
280
     1
102
SHADEPLOT
 70
     1
102
SHADEPLOTRESLEVEL
 70
     2
102
SHADEPLOTCUSTOMDPI
 70
   200
  0
XRECORD
  5
2A06C
102
{ACAD_REACTORS
330
2A06B
102
}
330
2A06B
100
AcDbXrecord
280
     1
102
SHADEPLOT
 70
     1
102
SHADEPLOTRESLEVEL
 70
     2
102
SHADEPLOTCUSTOMDPI
 70
   200
  0
XRECORD
  5
2A064
102
{ACAD_REACTORS
330
2A063
102
}
330
2A063
100
AcDbXrecord
280
     1
102
SHADEPLOT
 70
     1
102
SHADEPLOTRESLEVEL
 70
     2
102
SHADEPLOTCUSTOMDPI
 70
   300
  0
XRECORD
  5
2A066
102
{ACAD_REACTORS
330
2A065
102
}
330
2A065
100
AcDbXrecord
280
     1
102
SHADEPLOT
 70
     1
102
SHADEPLOTRESLEVEL
 70
     2
102
SHADEPLOTCUSTOMDPI
 70
   300
  0
XRECORD
  5
2A068
102
{ACAD_REACTORS
330
2A067
102
}
330
2A067
100
AcDbXrecord
280
     1
102
SHADEPLOT
 70
     1
102
SHADEPLOTRESLEVEL
 70
     2
102
SHADEPLOTCUSTOMDPI
 70
   300
  0
XRECORD
  5
2A06A
102
{ACAD_REACTORS
330
2A069
102
}
330
2A069
100
AcDbXrecord
280
     1
102
SHADEPLOT
 70
     1
102
SHADEPLOTRESLEVEL
 70
     2
102
SHADEPLOTCUSTOMDPI
 70
   300
  0
CELLSTYLEMAP
  5
2A05F
102
{ACAD_REACTORS
330
28E70
102
}
330
28E70
100
AcDbCellStyleMap
 90
        3
300
CELLSTYLE
  1
TABLEFORMAT_BEGIN
 90
        5
170
     1
 91
        0
 92
    32768
 62
   257
 93
        1
300
CONTENTFORMAT
  1
CONTENTFORMAT_BEGIN
 90
        0
 91
        0
 92
      512
 93
        0
300

 40
0.0
140
1.0
 94
        5
 62
     0
340
11
144
0.25
309
CONTENTFORMAT_END
171
     0
 94
        0
309
TABLEFORMAT_END
  1
CELLSTYLE_BEGIN
 90
        1
 91
        1
300
_TITLE
309
CELLSTYLE_END
300
CELLSTYLE
  1
TABLEFORMAT_BEGIN
 90
        5
170
     1
 91
        0
 92
        0
 62
   257
 93
        1
300
CONTENTFORMAT
  1
CONTENTFORMAT_BEGIN
 90
        0
 91
        0
 92
      512
 93
        0
300

 40
0.0
140
1.0
 94
        5
 62
     0
340
11
144
0.18
309
CONTENTFORMAT_END
171
     0
 94
        0
309
TABLEFORMAT_END
  1
CELLSTYLE_BEGIN
 90
        2
 91
        1
300
_HEADER
309
CELLSTYLE_END
300
CELLSTYLE
  1
TABLEFORMAT_BEGIN
 90
        5
170
     1
 91
        0
 92
        0
 62
   257
 93
        1
300
CONTENTFORMAT
  1
CONTENTFORMAT_BEGIN
 90
        0
 91
        0
 92
      512
 93
        0
300

 40
0.0
140
1.0
 94
        2
 62
     0
340
11
144
0.18
309
CONTENTFORMAT_END
171
     0
 94
        0
309
TABLEFORMAT_END
  1
CELLSTYLE_BEGIN
 90
        3
 91
        2
300
_DATA
309
CELLSTYLE_END
  0
XRECORD
  5
2A074
102
{ACAD_REACTORS
330
28E70
102
}
330
28E70
100
AcDbXrecord
280
     1
102
ACAD_ROUNDTRIP_PRE2007_TABLESTYLE
 90
      512
 91
        0
  1

 92
      512
 93
        0
  2

 94
      512
 95
        0
  3

  0
ENDSEC
  0
EOF
