  0
SECTION
  2
HEADER
  9
$ACADVER
  1
AC1015
  9
$ACADMAINTVER
 70
    18
  9
$DWGCODEPAGE
  3
ANSI_1252
  9
$INSBASE
 10
0.0
 20
0.0
 30
0.0
  9
$EXTMIN
 10
215.5567035595383
 20
119.4169943381764
 30
-0.0015258207003612
  9
$EXTMAX
 10
579.6253066747745
 20
812.2148457013707
 30
0.0000000349246008
  9
$LIMMIN
 10
0.0
 20
0.0
  9
$LIMMAX
 10
12.0
 20
9.0
  9
$ORTHOMODE
 70
     1
  9
$REGENMODE
 70
     1
  9
$FILLMODE
 70
     1
  9
$QTEXTMODE
 70
     0
  9
$MIRRTEXT
 70
     0
  9
$LTSCALE
 40
0.5
  9
$ATTMODE
 70
     1
  9
$TEXTSIZE
 40
1.0
  9
$TRACEWID
 40
0.05
  9
$TEXTSTYLE
  7
ARCHQUIK
  9
$CLAYER
  8
0
  9
$CELTYPE
  6
ByLayer
  9
$CECOLOR
 62
   256
  9
$CELTSCALE
 40
1.0
  9
$DISPSILH
 70
     0
  9
$DIMSCALE
 40
1.0
  9
$DIMASZ
 40
2.0
  9
$DIMEXO
 40
3.0
  9
$DIMDLI
 40
0.2
  9
$DIMRND
 40
0.0
  9
$DIMDLE
 40
0.0
  9
$DIMEXE
 40
0.0625
  9
$DIMTP
 40
0.0
  9
$DIMTM
 40
0.0
  9
$DIMTXT
 40
1.919999999999999
  9
$DIMCEN
 40
0.09
  9
$DIMTSZ
 40
0.0
  9
$DIMTOL
 70
     0
  9
$DIMLIM
 70
     0
  9
$DIMTIH
 70
     0
  9
$DIMTOH
 70
     1
  9
$DIMSE1
 70
     0
  9
$DIMSE2
 70
     0
  9
$DIMTAD
 70
     1
  9
$DIMZIN
 70
     0
  9
$DIMBLK
  1

  9
$DIMASO
 70
     1
  9
$DIMSHO
 70
     1
  9
$DIMPOST
  1

  9
$DIMAPOST
  1

  9
$DIMALT
 70
     0
  9
$DIMALTD
 70
     2
  9
$DIMALTF
 40
25.4
  9
$DIMLFAC
 40
1.0
  9
$DIMTOFL
 70
     0
  9
$DIMTVP
 40
0.0
  9
$DIMTIX
 70
     0
  9
$DIMSOXD
 70
     0
  9
$DIMSAH
 70
     0
  9
$DIMBLK1
  1

  9
$DIMBLK2
  1

  9
$DIMSTYLE
  2
Standard
  9
$DIMCLRD
 70
    30
  9
$DIMCLRE
 70
    30
  9
$DIMCLRT
 70
     7
  9
$DIMTFAC
 40
0.75
  9
$DIMGAP
 40
1.199999999999999
  9
$DIMJUST
 70
     0
  9
$DIMSD1
 70
     0
  9
$DIMSD2
 70
     0
  9
$DIMTOLJ
 70
     1
  9
$DIMTZIN
 70
     0
  9
$DIMALTZ
 70
     0
  9
$DIMALTTZ
 70
     0
  9
$DIMUPT
 70
     0
  9
$DIMDEC
 70
     6
  9
$DIMTDEC
 70
     6
  9
$DIMALTU
 70
     2
  9
$DIMALTTD
 70
     2
  9
$DIMTXSTY
  7
Standard
  9
$DIMAUNIT
 70
     0
  9
$DIMADEC
 70
     3
  9
$DIMALTRND
 40
0.0
  9
$DIMAZIN
 70
     0
  9
$DIMDSEP
 70
    46
  9
$DIMATFIT
 70
     3
  9
$DIMFRAC
 70
     1
  9
$DIMLDRBLK
  1

  9
$DIMLUNIT
 70
     2
  9
$DIMLWD
 70
    -2
  9
$DIMLWE
 70
    -2
  9
$DIMTMOVE
 70
     0
  9
$LUNITS
 70
     2
  9
$LUPREC
 70
     4
  9
$SKETCHINC
 40
0.1
  9
$FILLETRAD
 40
0.0
  9
$AUNITS
 70
     0
  9
$AUPREC
 70
     3
  9
$MENU
  1
.
  9
$ELEVATION
 40
0.0
  9
$PELEVATION
 40
0.0
  9
$THICKNESS
 40
0.0
  9
$LIMCHECK
 70
     0
  9
$CHAMFERA
 40
0.5
  9
$CHAMFERB
 40
0.5
  9
$CHAMFERC
 40
1.0
  9
$CHAMFERD
 40
0.0
  9
$SKPOLY
 70
     0
  9
$TDCREATE
 40
2453620.458702304
  9
$TDUCREATE
 40
2453620.708702303
  9
$TDUPDATE
 40
2455630.701150232
  9
$TDUUPDATE
 40
2455630.951150232
  9
$TDINDWG
 40
2.0764306019
  9
$TDUSRTIMER
 40
2.0764296991
  9
$USRTIMER
 70
     1
  9
$ANGBASE
 50
0.0
  9
$ANGDIR
 70
     0
  9
$PDMODE
 70
    34
  9
$PDSIZE
 40
0.005
  9
$PLINEWID
 40
0.0
  9
$SPLFRAME
 70
     0
  9
$SPLINETYPE
 70
     6
  9
$SPLINESEGS
 70
     8
  9
$HANDSEED
  5
29FA6
  9
$SURFTAB1
 70
     6
  9
$SURFTAB2
 70
     6
  9
$SURFTYPE
 70
     6
  9
$SURFU
 70
     6
  9
$SURFV
 70
     6
  9
$UCSBASE
  2

  9
$UCSNAME
  2

  9
$UCSORG
 10
0.0
 20
0.0
 30
0.0
  9
$UCSXDIR
 10
1.0
 20
0.0
 30
0.0
  9
$UCSYDIR
 10
0.0
 20
1.0
 30
0.0
  9
$UCSORTHOREF
  2

  9
$UCSORTHOVIEW
 70
     0
  9
$UCSORGTOP
 10
0.0
 20
0.0
 30
0.0
  9
$UCSORGBOTTOM
 10
0.0
 20
0.0
 30
0.0
  9
$UCSORGLEFT
 10
0.0
 20
0.0
 30
0.0
  9
$UCSORGRIGHT
 10
0.0
 20
0.0
 30
0.0
  9
$UCSORGFRONT
 10
0.0
 20
0.0
 30
0.0
  9
$UCSORGBACK
 10
0.0
 20
0.0
 30
0.0
  9
$PUCSBASE
  2

  9
$PUCSNAME
  2

  9
$PUCSORG
 10
0.0
 20
0.0
 30
0.0
  9
$PUCSXDIR
 10
1.0
 20
0.0
 30
0.0
  9
$PUCSYDIR
 10
0.0
 20
1.0
 30
0.0
  9
$PUCSORTHOREF
  2

  9
$PUCSORTHOVIEW
 70
     0
  9
$PUCSORGTOP
 10
0.0
 20
0.0
 30
0.0
  9
$PUCSORGBOTTOM
 10
0.0
 20
0.0
 30
0.0
  9
$PUCSORGLEFT
 10
0.0
 20
0.0
 30
0.0
  9
$PUCSORGRIGHT
 10
0.0
 20
0.0
 30
0.0
  9
$PUCSORGFRONT
 10
0.0
 20
0.0
 30
0.0
  9
$PUCSORGBACK
 10
0.0
 20
0.0
 30
0.0
  9
$USERI1
 70
     0
  9
$USERI2
 70
     0
  9
$USERI3
 70
     0
  9
$USERI4
 70
     0
  9
$USERI5
 70
     0
  9
$USERR1
 40
24.0
  9
$USERR2
 40
0.0
  9
$USERR3
 40
22.0
  9
$USERR4
 40
0.0
  9
$USERR5
 40
0.0
  9
$WORLDVIEW
 70
     1
  9
$SHADEDGE
 70
     3
  9
$SHADEDIF
 70
    70
  9
$TILEMODE
 70
     1
  9
$MAXACTVP
 70
    64
  9
$PINSBASE
 10
0.0
 20
0.0
 30
0.0
  9
$PLIMCHECK
 70
     0
  9
$PEXTMIN
 10
0.0
 20
0.0
 30
0.0
  9
$PEXTMAX
 10
0.0
 20
0.0
 30
0.0
  9
$PLIMMIN
 10
0.0
 20
0.0
  9
$PLIMMAX
 10
12.0
 20
9.0
  9
$UNITMODE
 70
     0
  9
$VISRETAIN
 70
     1
  9
$PLINEGEN
 70
     0
  9
$PSLTSCALE
 70
     1
  9
$TREEDEPTH
 70
  3020
  9
$CMLSTYLE
  2
Standard
  9
$CMLJUST
 70
     0
  9
$CMLSCALE
 40
1.0
  9
$PROXYGRAPHICS
 70
     1
  9
$MEASUREMENT
 70
     0
  9
$CELWEIGHT
370
    -1
  9
$ENDCAPS
280
     0
  9
$JOINSTYLE
280
     0
  9
$LWDISPLAY
290
     0
  9
$INSUNITS
 70
     1
  9
$HYPERLINKBASE
  1

  9
$STYLESHEET
  1

  9
$XEDIT
290
     1
  9
$CEPSNTYPE
380
     0
  9
$PSTYLEMODE
290
     1
  9
$FINGERPRINTGUID
  2
{FDEAD576-A652-11D2-9A35-0060089B3A3F}
  9
$VERSIONGUID
  2
{0A49841B-3401-4316-BFD7-351168756C4B}
  9
$EXTNAMES
290
     1
  9
$PSVPSCALE
 40
0.0
  9
$OLESTARTUP
290
     0
  0
ENDSEC
  0
SECTION
  2
CLASSES
  0
CLASS
  1
ACDBDICTIONARYWDFLT
  2
AcDbDictionaryWithDefault
  3
ObjectDBX Classes
 90
        0
280
     0
281
     0
  0
CLASS
  1
ACDBPLACEHOLDER
  2
AcDbPlaceHolder
  3
ObjectDBX Classes
 90
        0
280
     0
281
     0
  0
CLASS
  1
LAYOUT
  2
AcDbLayout
  3
ObjectDBX Classes
 90
        0
280
     0
281
     0
  0
CLASS
  1
PLOTSETTINGS
  2
AcDbPlotSettings
  3
ObjectDBX Classes
 90
        0
280
     0
281
     0
  0
CLASS
  1
AMLOADER
  2
AMLoader
  3
AMAcad
 90
        0
280
     0
281
     0
  0
CLASS
  1
DICTIONARYVAR
  2
AcDbDictionaryVar
  3
ObjectDBX Classes
 90
        0
280
     0
281
     0
  0
CLASS
  1
SORTENTSTABLE
  2
AcDbSortentsTable
  3
ObjectDBX Classes
 90
        0
280
     0
281
     0
  0
CLASS
  1
MATERIAL
  2
AcDbMaterial
  3
ObjectDBX Classes
 90
     1153
280
     0
281
     0
  0
CLASS
  1
VISUALSTYLE
  2
AcDbVisualStyle
  3
ObjectDBX Classes
 90
     4095
280
     0
281
     0
  0
CLASS
  1
TABLESTYLE
  2
AcDbTableStyle
  3
ObjectDBX Classes
 90
     4095
280
     0
281
     0
  0
CLASS
  1
SCALE
  2
AcDbScale
  3
ObjectDBX Classes
 90
     1153
280
     0
281
     0
  0
CLASS
  1
MLEADERSTYLE
  2
AcDbMLeaderStyle
  3
ACDB_MLEADERSTYLE_CLASS
 90
     4095
280
     0
281
     0
  0
CLASS
  1
CELLSTYLEMAP
  2
AcDbCellStyleMap
  3
ObjectDBX Classes
 90
     1152
280
     0
281
     0
  0
CLASS
  1
DIMASSOC
  2
AcDbDimAssoc
  3
"AcDbDimAssoc|Product Desc:     AcDim ARX App For Dimension|Company:          Autodesk, Inc.|WEB Address:      www.autodesk.com"
 90
    32768
280
     0
281
     0
  0
CLASS
  1
ACAD_EVALUATION_GRAPH
  2
AcDbEvalGraph
  3
ObjectDBX Classes
 90
    33921
280
     0
281
     0
  0
CLASS
  1
ACAECUSTOBJ
  2
AcAeEditorObj
  3
AcAeEditorObj
 90
    33792
280
     0
281
     0
  0
CLASS
  1
ACDB_DYNAMICBLOCKPURGEPREVENTER_VERSION
  2
AcDbDynamicBlockPurgePreventer
  3
ObjectDBX Classes
 90
    33921
280
     0
281
     0
  0
ENDSEC
  0
SECTION
  2
TABLES
  0
TABLE
  2
VPORT
  5
8
102
{ACAD_XDICTIONARY
360
29223
102
}
330
0
100
AcDbSymbolTable
 70
     1
  0
VPORT
  5
28BDD
330
8
100
AcDbSymbolTableRecord
100
AcDbViewportTableRecord
  2
*Active
 70
     0
 10
0.0
 20
0.0
 11
1.0
 21
1.0
 12
397.5910051171563
 22
465.8159200197736
 13
0.0
 23
0.0
 14
1.0
 24
1.0
 15
0.5
 25
0.5
 16
0.0
 26
0.0
 36
1.0
 17
0.0
 27
0.0
 37
0.0
 40
698.6690195950858
 41
1.596888260254596
 42
50.0
 43
0.0
 44
0.0
 50
0.0
 51
0.0
 71
     0
 72
  1000
 73
     1
 74
     0
 75
     0
 76
     0
 77
     0
 78
     0
281
     0
 65
     1
110
0.0
120
0.0
130
0.0
111
1.0
121
0.0
131
0.0
112
0.0
122
1.0
132
0.0
 79
     0
146
0.0
  0
ENDTAB
  0
TABLE
  2
LTYPE
  5
5
330
0
100
AcDbSymbolTable
 70
     2
  0
LTYPE
  5
14
330
5
100
AcDbSymbolTableRecord
100
AcDbLinetypeTableRecord
  2
ByBlock
 70
     0
  3

 72
    65
 73
     0
 40
0.0
  0
LTYPE
  5
15
330
5
100
AcDbSymbolTableRecord
100
AcDbLinetypeTableRecord
  2
ByLayer
 70
     0
  3

 72
    65
 73
     0
 40
0.0
  0
LTYPE
  5
16
330
5
100
AcDbSymbolTableRecord
100
AcDbLinetypeTableRecord
  2
Continuous
 70
     0
  3
Solid line
 72
    65
 73
     0
 40
0.0
  0
LTYPE
  5
29991
330
5
100
AcDbSymbolTableRecord
100
AcDbLinetypeTableRecord
  2
DASHED
 70
     0
  3
Dashed __ __ __ __ __ __ __ __ __ __ __ __ __ _
 72
    65
 73
     2
 40
0.75
 49
0.5
 74
     0
 49
-0.25
 74
     0
  0
ENDTAB
  0
TABLE
  2
LAYER
  5
2
102
{ACAD_XDICTIONARY
360
13579
102
}
330
0
100
AcDbSymbolTable
 70
     9
  0
LAYER
  5
10
102
{ACAD_XDICTIONARY
360
28E32
102
}
330
2
100
AcDbSymbolTableRecord
100
AcDbLayerTableRecord
  2
0
 70
     0
 62
     7
  6
Continuous
370
    -3
390
F
  0
LAYER
  5
1462C
102
{ACAD_XDICTIONARY
360
28E36
102
}
330
2
100
AcDbSymbolTableRecord
100
AcDbLayerTableRecord
  2
Pel_TXT
 70
     0
 62
   255
  6
Continuous
370
    -3
390
F
  0
LAYER
  5
1462D
102
{ACAD_XDICTIONARY
360
28E38
102
}
330
2
100
AcDbSymbolTableRecord
100
AcDbLayerTableRecord
  2
Pel_Frame_Outside
 70
     0
 62
    84
  6
Continuous
370
    -3
390
F
  0
LAYER
  5
1462E
102
{ACAD_XDICTIONARY
360
28E3A
102
}
330
2
100
AcDbSymbolTableRecord
100
AcDbLayerTableRecord
  2
Pel_Sash_Outside
 70
     0
 62
    84
  6
Continuous
370
    -3
390
F
  0
LAYER
  5
15439
102
{ACAD_XDICTIONARY
360
28E4A
102
}
330
2
100
AcDbSymbolTableRecord
100
AcDbLayerTableRecord
  2
Pel_Points
 70
     0
 62
     7
  6
Continuous
290
     0
370
    -3
390
F
  0
LAYER
  5
19873
102
{ACAD_XDICTIONARY
360
28E4C
102
}
330
2
100
AcDbSymbolTableRecord
100
AcDbLayerTableRecord
  2
Pel_Muntin_AS
 70
     0
 62
    84
  6
Continuous
370
    -3
390
F
  0
LAYER
  5
28E85
102
{ACAD_XDICTIONARY
360
28E86
102
}
330
2
100
AcDbSymbolTableRecord
100
AcDbLayerTableRecord
  2
Pel_Sash_Inside
 70
     0
 62
     3
  6
Continuous
370
    -3
390
F
  0
LAYER
  5
29992
102
{ACAD_XDICTIONARY
360
29993
102
}
330
2
100
AcDbSymbolTableRecord
100
AcDbLayerTableRecord
  2
Pel_Hinging
 70
     0
 62
   132
  6
DASHED
370
    -3
390
F
  0
ENDTAB
  0
TABLE
  2
STYLE
  5
3
330
0
100
AcDbSymbolTable
 70
     2
  0
STYLE
  5
11
330
3
100
AcDbSymbolTableRecord
100
AcDbTextStyleTableRecord
  2
Standard
 70
     0
 40
0.0
 41
1.0
 50
0.0
 71
     0
 42
0.2
  3
ARIAL.TTF
  4

1001
ACAD
1000
Arial
1071
       34
  0
STYLE
  5
1536F
330
3
100
AcDbSymbolTableRecord
100
AcDbTextStyleTableRecord
  2
ARCHQUIK
 70
     0
 40
0.0
 41
1.0
 50
0.0
 71
     0
 42
1.0
  3
archquik.shx
  4

  0
ENDTAB
  0
TABLE
  2
VIEW
  5
6
330
0
100
AcDbSymbolTable
 70
     1
  0
VIEW
  5
121BB
330
6
100
AcDbSymbolTableRecord
100
AcDbViewTableRecord
  2
org
 70
     0
 40
111.2574309029219
 10
571.8869122333773
 20
70.95957836411844
 41
161.9957098311775
 11
0.0
 21
0.0
 31
1.0
 12
0.0
 22
0.0
 32
0.0
 42
50.0
 43
0.0
 44
0.0
 50
0.0
 71
     0
281
     0
 72
     1
110
0.0
120
0.0
130
0.0
111
1.0
121
0.0
131
0.0
112
0.0
122
1.0
132
0.0
 79
     0
146
0.0
  0
ENDTAB
  0
TABLE
  2
UCS
  5
7
330
0
100
AcDbSymbolTable
 70
     0
  0
ENDTAB
  0
TABLE
  2
APPID
  5
9
330
0
100
AcDbSymbolTable
 70
    24
  0
APPID
  5
12
330
9
100
AcDbSymbolTableRecord
100
AcDbRegAppTableRecord
  2
ACAD
 70
     0
  0
APPID
  5
1B8
330
9
100
AcDbSymbolTableRecord
100
AcDbRegAppTableRecord
  2
AMAcad
 70
     0
  0
APPID
  5
FBF
330
9
100
AcDbSymbolTableRecord
100
AcDbRegAppTableRecord
  2
ADE
 70
     0
  0
APPID
  5
1010
330
9
100
AcDbSymbolTableRecord
100
AcDbRegAppTableRecord
  2
DCO15
 70
     0
  0
APPID
  5
2B00
330
9
100
AcDbSymbolTableRecord
100
AcDbRegAppTableRecord
  2
ADCADD_ZZ
 70
     0
  0
APPID
  5
2B01
330
9
100
AcDbSymbolTableRecord
100
AcDbRegAppTableRecord
  2
SDSK_PMN
 70
     0
  0
APPID
  5
EE18
330
9
100
AcDbSymbolTableRecord
100
AcDbRegAppTableRecord
  2
GENIUS_GENODEF_13
 70
     0
  0
APPID
  5
EE19
330
9
100
AcDbSymbolTableRecord
100
AcDbRegAppTableRecord
  2
GENIUS_GENOBJ-N-FIL_13
 70
     0
  0
APPID
  5
EE1A
330
9
100
AcDbSymbolTableRecord
100
AcDbRegAppTableRecord
  2
GENIUS_GENDTOL_13
 70
     0
  0
APPID
  5
EE1B
330
9
100
AcDbSymbolTableRecord
100
AcDbRegAppTableRecord
  2
AVE_RENDER
 70
     0
  0
APPID
  5
EE1C
330
9
100
AcDbSymbolTableRecord
100
AcDbRegAppTableRecord
  2
AVE_ENTITY_MATERIAL
 70
     0
  0
APPID
  5
EE1D
330
9
100
AcDbSymbolTableRecord
100
AcDbRegAppTableRecord
  2
AVE_FINISH
 70
     0
  0
APPID
  5
EE1E
330
9
100
AcDbSymbolTableRecord
100
AcDbRegAppTableRecord
  2
AVE_MATERIAL
 70
     0
  0
APPID
  5
EE1F
330
9
100
AcDbSymbolTableRecord
100
AcDbRegAppTableRecord
  2
AVE_GLOBAL
 70
     0
  0
APPID
  5
28C42
330
9
100
AcDbSymbolTableRecord
100
AcDbRegAppTableRecord
  2
ACAD_MLEADERVER
 70
     0
  0
APPID
  5
28C5D
330
9
100
AcDbSymbolTableRecord
100
AcDbRegAppTableRecord
  2
ACAD_PSEXT
 70
     0
  0
APPID
  5
28C5E
330
9
100
AcDbSymbolTableRecord
100
AcDbRegAppTableRecord
  2
ACAD_DSTYLE_DIMJAG
 70
     0
  0
APPID
  5
28C5F
330
9
100
AcDbSymbolTableRecord
100
AcDbRegAppTableRecord
  2
ACAD_DSTYLE_DIMTALN
 70
     0
  0
APPID
  5
28CF2
330
9
100
AcDbSymbolTableRecord
100
AcDbRegAppTableRecord
  2
AcAecLayerStandard
 70
     0
  0
APPID
  5
29661
330
9
100
AcDbSymbolTableRecord
100
AcDbRegAppTableRecord
  2
ACAUTHENVIRON
 70
     0
  0
APPID
  5
296EA
330
9
100
AcDbSymbolTableRecord
100
AcDbRegAppTableRecord
  2
AcDbDynamicBlockTrueName
 70
     0
  0
APPID
  5
296EB
330
9
100
AcDbSymbolTableRecord
100
AcDbRegAppTableRecord
  2
AcDbDynamicBlockGUID
 70
     0
  0
APPID
  5
297E7
330
9
100
AcDbSymbolTableRecord
100
AcDbRegAppTableRecord
  2
AcadAnnotative
 70
     0
  0
APPID
  5
29927
330
9
100
AcDbSymbolTableRecord
100
AcDbRegAppTableRecord
  2
ACAD_EXEMPT_FROM_CAD_STANDARDS
 70
     0
  0
ENDTAB
  0
TABLE
  2
DIMSTYLE
  5
A
330
0
100
AcDbSymbolTable
 70
     1
100
AcDbDimStyleTable
 71
     1
340
27
  0
DIMSTYLE
105
27
330
A
100
AcDbSymbolTableRecord
100
AcDbDimStyleTableRecord
  2
Standard
 70
     0
 41
2.666666666666666
 42
3.0
 43
0.2
 44
0.0625
 73
     0
 77
     1
 78
     2
140
0.09375
146
0.75
147
1.199999999999999
176
    30
177
    30
178
     7
179
     3
271
     6
272
     6
276
     1
279
     2
340
11
  0
ENDTAB
  0
TABLE
  2
BLOCK_RECORD
  5
1
330
0
100
AcDbSymbolTable
 70
    48
  0
BLOCK_RECORD
  5
1F
102
{ACAD_XDICTIONARY
360
12221
102
}
330
1
100
AcDbSymbolTableRecord
100
AcDbBlockTableRecord
  2
*Model_Space
340
22
  0
BLOCK_RECORD
  5
13559
330
1
100
AcDbSymbolTableRecord
100
AcDbBlockTableRecord
  2
*Paper_Space
340
1355A
  0
BLOCK_RECORD
  5
149C3
330
1
100
AcDbSymbolTableRecord
100
AcDbBlockTableRecord
  2
341
340
0
102
{BLKREFS
331
1F464
331
1F465
331
1F467
331
1F468
331
1F4A7
331
1F4A8
331
1F4AA
331
1FA3F
102
}
  0
BLOCK_RECORD
  5
1571D
330
1
100
AcDbSymbolTableRecord
100
AcDbBlockTableRecord
  2
342
340
0
102
{BLKREFS
331
1F466
331
1F469
331
1F4A6
331
1F4A9
331
1F4AE
331
1FA55
102
}
  0
BLOCK_RECORD
  5
19861
102
{ACAD_XDICTIONARY
360
1F5D3
102
}
330
1
100
AcDbSymbolTableRecord
100
AcDbBlockTableRecord
  2
E
340
0
102
{BLKREFS
331
1F3BD
331
1F3BE
331
1F3C7
331
1F3C8
331
1F3C9
331
1F3CA
331
1F3CB
331
1F3CC
331
1F3CD
331
1F3CE
331
1F3D6
331
28B8D
331
28B8C
102
}
  0
BLOCK_RECORD
  5
19865
330
1
100
AcDbSymbolTableRecord
100
AcDbBlockTableRecord
  2
E1
340
0
102
{BLKREFS
331
1F3C6
102
}
  0
BLOCK_RECORD
  5
1F196
330
1
100
AcDbSymbolTableRecord
100
AcDbBlockTableRecord
  2
E3
340
0
102
{BLKREFS
331
1F3C3
331
1F3C5
102
}
  0
BLOCK_RECORD
  5
1F19B
330
1
100
AcDbSymbolTableRecord
100
AcDbBlockTableRecord
  2
E2
340
0
102
{BLKREFS
331
1F3BC
331
1F3BF
331
1F3C0
331
1F3C1
331
1F3C2
331
1F3C4
331
28B8E
102
}
  0
BLOCK_RECORD
  5
263E7
102
{ACAD_XDICTIONARY
360
2970A
102
}
330
1
100
AcDbSymbolTableRecord
100
AcDbBlockTableRecord
  2
ASPCITT1747T
340
0
310
2800000020000000200000000100080000000000000400000000000000000000000000000000000000000000000080000080000000808000800000008000800080800000C0C0C000C0DCC000F0CAA6000020400000206000002080000020A0000020C0000020E00000400000004020000040400000406000004080000040A0
310
000040C0000040E00000600000006020000060400000606000006080000060A0000060C0000060E00000800000008020000080400000806000008080000080A0000080C0000080E00000A0000000A0200000A0400000A0600000A0800000A0A00000A0C00000A0E00000C0000000C0200000C0400000C0600000C0800000C0
310
A00000C0C00000C0E00000E0000000E0200000E0400000E0600000E0800000E0A00000E0C00000E0E00040000000400020004000400040006000400080004000A0004000C0004000E00040200000402020004020400040206000402080004020A0004020C0004020E000404000004040200040404000404060004040800040
310
40A0004040C0004040E00040600000406020004060400040606000406080004060A0004060C0004060E00040800000408020004080400040806000408080004080A0004080C0004080E00040A0000040A0200040A0400040A0600040A0800040A0A00040A0C00040A0E00040C0000040C0200040C0400040C0600040C08000
310
40C0A00040C0C00040C0E00040E0000040E0200040E0400040E0600040E0800040E0A00040E0C00040E0E00080000000800020008000400080006000800080008000A0008000C0008000E00080200000802020008020400080206000802080008020A0008020C0008020E00080400000804020008040400080406000804080
310
008040A0008040C0008040E00080600000806020008060400080606000806080008060A0008060C0008060E00080800000808020008080400080806000808080008080A0008080C0008080E00080A0000080A0200080A0400080A0600080A0800080A0A00080A0C00080A0E00080C0000080C0200080C0400080C0600080C0
310
800080C0A00080C0C00080C0E00080E0000080E0200080E0400080E0600080E0800080E0A00080E0C00080E0E000C0000000C0002000C0004000C0006000C0008000C000A000C000C000C000E000C0200000C0202000C0204000C0206000C0208000C020A000C020C000C020E000C0400000C0402000C0404000C0406000C0
310
408000C040A000C040C000C040E000C0600000C0602000C0604000C0606000C0608000C060A000C060C000C060E000C0800000C0802000C0804000C0806000C0808000C080A000C080C000C080E000C0A00000C0A02000C0A04000C0A06000C0A08000C0A0A000C0A0C000C0A0E000C0C00000C0C02000C0C04000C0C06000
310
C0C08000C0C0A000F0FBFF00A4A0A000808080000000FF0000FF000000FFFF00FF000000FF00FF00FFFF0000FFFFFF0000000000000000000000000000000000000000000000000000000000000000000000000000000000000029292929292929292929292900000000000000000000000000000000000000002929292929
310
29292929292929000000000000000000000000000000000000000029292929292929292929292900000000000000000000000000000000000000002929290000292900002929290000000000000000000000000000000000000000292929000029290000292929000000000000000000000000000000000000000029292900
310
00292900002929290000000000000000000000000000000000000000292929000029290000292929000000000000000000000000000000000000000029292900002929000029292900000000000000000000000000000000000000002929292929292929292929290000000000000000000000000000000000000000292929
310
00002929000029292900000000000000000000000000000000000000002929290000292900002929290000000000000000000000000000000000000000292929000029290000292929000000000000000000000000000000000000000029292900002929000029292900000000000000000000000000000000000000002929
310
29000029290000292929000000000000000000000000000000000000000029292929292929292929292900000000000000000000000000000000000000002929292929292929292929290000000000000000000000000000000000000000292929000029290000292929000000000000000000000000000000000000000029
310
29290000292900002929290000000000000000000000000000000000000000292929000029290000292929000000000000000000000000000000000000000029292900002929000029292900000000000000000000000000000000000000002929290000292900002929290000000000000000000000000000000000000000
310
29292929292929292929292900000000000000000000000000000000000000002929290000292900002929290000000000000000000000000000000000000000292929000029290000292929000000000000000000000000000000000000000029292900002929000029292900000000000000000000000000000000000000
310
00292929000029290000292929000000000000000000000000000000000000000029292900002929000029292900000000000000000000000000000000000000002929292929292929292929290000000000000000000000000000000000000000292929292929292929292929000000000000000000000000000000000000
310
0000292929292929292929292929000000000000000000000000000000000000000000000000000000000000000000000000000000000000
102
{BLKREFS
331
26458
102
}
1001
ACAD
1000
DesignCenter Data
1002
{
1070
     1
1070
     1
1002
}
  0
BLOCK_RECORD
  5
28E87
102
{ACAD_XDICTIONARY
360
28E92
102
}
330
1
100
AcDbSymbolTableRecord
100
AcDbBlockTableRecord
  2
ASPCITT1735T
340
0
102
{BLKREFS
331
28E96
102
}
1001
ACAD
1000
DesignCenter Data
1002
{
1070
     1
1070
     1
1002
}
  0
BLOCK_RECORD
  5
28E98
102
{ACAD_XDICTIONARY
360
28EA3
102
}
330
1
100
AcDbSymbolTableRecord
100
AcDbBlockTableRecord
  2
ASPCITT1741T
340
0
102
{BLKREFS
331
28EA7
102
}
1001
ACAD
1000
DesignCenter Data
1002
{
1070
     1
1070
     1
1002
}
  0
BLOCK_RECORD
  5
28EA8
102
{ACAD_XDICTIONARY
360
28EB5
102
}
330
1
100
AcDbSymbolTableRecord
100
AcDbBlockTableRecord
  2
ASPCICM1753T
340
0
102
{BLKREFS
331
28EB9
102
}
1001
ACAD
1000
DesignCenter Data
1002
{
1070
     1
1070
     1
1002
}
  0
BLOCK_RECORD
  5
28EBA
102
{ACAD_XDICTIONARY
360
28EC7
102
}
330
1
100
AcDbSymbolTableRecord
100
AcDbBlockTableRecord
  2
ASPCICM1759T
340
0
102
{BLKREFS
331
28ECB
102
}
1001
ACAD
1000
DesignCenter Data
1002
{
1070
     1
1070
     1
1002
}
  0
BLOCK_RECORD
  5
28ECC
102
{ACAD_XDICTIONARY
360
28EDB
102
}
330
1
100
AcDbSymbolTableRecord
100
AcDbBlockTableRecord
  2
ASPCICM1765T
340
0
102
{BLKREFS
331
28EDF
102
}
1001
ACAD
1000
DesignCenter Data
1002
{
1070
     1
1070
     1
1002
}
  0
BLOCK_RECORD
  5
28EE0
102
{ACAD_XDICTIONARY
360
28EEB
102
}
330
1
100
AcDbSymbolTableRecord
100
AcDbBlockTableRecord
  2
ASPCICM2135T
340
0
102
{BLKREFS
331
28EEF
102
}
1001
ACAD
1000
DesignCenter Data
1002
{
1070
     1
1070
     1
1002
}
  0
BLOCK_RECORD
  5
28EF0
102
{ACAD_XDICTIONARY
360
28EFB
102
}
330
1
100
AcDbSymbolTableRecord
100
AcDbBlockTableRecord
  2
ASPCICM2141T
340
0
102
{BLKREFS
331
28EFF
102
}
1001
ACAD
1000
DesignCenter Data
1002
{
1070
     1
1070
     1
1002
}
  0
BLOCK_RECORD
  5
28F00
102
{ACAD_XDICTIONARY
360
28F0B
102
}
330
1
100
AcDbSymbolTableRecord
100
AcDbBlockTableRecord
  2
ASPCICM2147T
340
0
102
{BLKREFS
331
28F0F
102
}
1001
ACAD
1000
DesignCenter Data
1002
{
1070
     1
1070
     1
1002
}
  0
BLOCK_RECORD
  5
28F11
102
{ACAD_XDICTIONARY
360
28F1E
102
}
330
1
100
AcDbSymbolTableRecord
100
AcDbBlockTableRecord
  2
ASPCICM2153T
340
0
102
{BLKREFS
331
28F22
102
}
1001
ACAD
1000
DesignCenter Data
1002
{
1070
     1
1070
     1
1002
}
  0
BLOCK_RECORD
  5
28F23
102
{ACAD_XDICTIONARY
360
28F30
102
}
330
1
100
AcDbSymbolTableRecord
100
AcDbBlockTableRecord
  2
ASPCICM2159T
340
0
102
{BLKREFS
331
28F34
102
}
1001
ACAD
1000
DesignCenter Data
1002
{
1070
     1
1070
     1
1002
}
  0
BLOCK_RECORD
  5
28F35
102
{ACAD_XDICTIONARY
360
28F44
102
}
330
1
100
AcDbSymbolTableRecord
100
AcDbBlockTableRecord
  2
ASPCICM2165T
340
0
102
{BLKREFS
331
28F48
102
}
1001
ACAD
1000
DesignCenter Data
1002
{
1070
     1
1070
     1
1002
}
  0
BLOCK_RECORD
  5
28F49
102
{ACAD_XDICTIONARY
360
28F54
102
}
330
1
100
AcDbSymbolTableRecord
100
AcDbBlockTableRecord
  2
ASPCICM2335T
340
0
102
{BLKREFS
331
28F58
102
}
1001
ACAD
1000
DesignCenter Data
1002
{
1070
     1
1070
     1
1002
}
  0
BLOCK_RECORD
  5
28F59
102
{ACAD_XDICTIONARY
360
28F64
102
}
330
1
100
AcDbSymbolTableRecord
100
AcDbBlockTableRecord
  2
ASPCICM2341T
340
0
102
{BLKREFS
331
28F68
102
}
1001
ACAD
1000
DesignCenter Data
1002
{
1070
     1
1070
     1
1002
}
  0
BLOCK_RECORD
  5
28F69
102
{ACAD_XDICTIONARY
360
28F76
102
}
330
1
100
AcDbSymbolTableRecord
100
AcDbBlockTableRecord
  2
ASPCICM2353T
340
0
102
{BLKREFS
331
28F7A
102
}
1001
ACAD
1000
DesignCenter Data
1002
{
1070
     1
1070
     1
1002
}
  0
BLOCK_RECORD
  5
28F7B
102
{ACAD_XDICTIONARY
360
28F86
102
}
330
1
100
AcDbSymbolTableRecord
100
AcDbBlockTableRecord
  2
ASPCICM2347T
340
0
102
{BLKREFS
331
28F8A
102
}
1001
ACAD
1000
DesignCenter Data
1002
{
1070
     1
1070
     1
1002
}
  0
BLOCK_RECORD
  5
28F8B
102
{ACAD_XDICTIONARY
360
28F98
102
}
330
1
100
AcDbSymbolTableRecord
100
AcDbBlockTableRecord
  2
ASPCICM2359T
340
0
102
{BLKREFS
331
28F9C
102
}
1001
ACAD
1000
DesignCenter Data
1002
{
1070
     1
1070
     1
1002
}
  0
BLOCK_RECORD
  5
28F9D
102
{ACAD_XDICTIONARY
360
28FAC
102
}
330
1
100
AcDbSymbolTableRecord
100
AcDbBlockTableRecord
  2
ASPCICM2365T
340
0
102
{BLKREFS
331
28FB0
102
}
1001
ACAD
1000
DesignCenter Data
1002
{
1070
     1
1070
     1
1002
}
  0
BLOCK_RECORD
  5
28FB1
102
{ACAD_XDICTIONARY
360
28FBC
102
}
330
1
100
AcDbSymbolTableRecord
100
AcDbBlockTableRecord
  2
ASPCICM2535T
340
0
102
{BLKREFS
331
28FC0
102
}
1001
ACAD
1000
DesignCenter Data
1002
{
1070
     1
1070
     1
1002
}
  0
BLOCK_RECORD
  5
28FC1
102
{ACAD_XDICTIONARY
360
28FCC
102
}
330
1
100
AcDbSymbolTableRecord
100
AcDbBlockTableRecord
  2
ASPCICM2541T
340
0
102
{BLKREFS
331
28FD0
102
}
1001
ACAD
1000
DesignCenter Data
1002
{
1070
     1
1070
     1
1002
}
  0
BLOCK_RECORD
  5
28FD1
102
{ACAD_XDICTIONARY
360
28FDC
102
}
330
1
100
AcDbSymbolTableRecord
100
AcDbBlockTableRecord
  2
ASPCICM2547T
340
0
102
{BLKREFS
331
28FE0
102
}
1001
ACAD
1000
DesignCenter Data
1002
{
1070
     1
1070
     1
1002
}
  0
BLOCK_RECORD
  5
28FE1
102
{ACAD_XDICTIONARY
360
28FEE
102
}
330
1
100
AcDbSymbolTableRecord
100
AcDbBlockTableRecord
  2
ASPCICM2553T
340
0
102
{BLKREFS
331
28FF2
102
}
1001
ACAD
1000
DesignCenter Data
1002
{
1070
     1
1070
     1
1002
}
  0
BLOCK_RECORD
  5
28FF3
102
{ACAD_XDICTIONARY
360
29000
102
}
330
1
100
AcDbSymbolTableRecord
100
AcDbBlockTableRecord
  2
ASPCICM2559T
340
0
102
{BLKREFS
331
29004
102
}
1001
ACAD
1000
DesignCenter Data
1002
{
1070
     1
1070
     1
1002
}
  0
BLOCK_RECORD
  5
29005
102
{ACAD_XDICTIONARY
360
29014
102
}
330
1
100
AcDbSymbolTableRecord
100
AcDbBlockTableRecord
  2
ASPCICM2565T
340
0
102
{BLKREFS
331
29018
102
}
1001
ACAD
1000
DesignCenter Data
1002
{
1070
     1
1070
     1
1002
}
  0
BLOCK_RECORD
  5
29019
102
{ACAD_XDICTIONARY
360
29028
102
}
330
1
100
AcDbSymbolTableRecord
100
AcDbBlockTableRecord
  2
ASPCICM2571T
340
0
102
{BLKREFS
331
2902C
102
}
1001
ACAD
1000
DesignCenter Data
1002
{
1070
     1
1070
     1
1002
}
  0
BLOCK_RECORD
  5
2902E
102
{ACAD_XDICTIONARY
360
2903F
102
}
330
1
100
AcDbSymbolTableRecord
100
AcDbBlockTableRecord
  2
ASPCICM2573T
340
0
102
{BLKREFS
331
29043
102
}
1001
ACAD
1000
DesignCenter Data
1002
{
1070
     1
1070
     1
1002
}
  0
BLOCK_RECORD
  5
29044
102
{ACAD_XDICTIONARY
360
2906D
102
}
330
1
100
AcDbSymbolTableRecord
100
AcDbBlockTableRecord
  2
ASPCICM3573T
340
0
102
{BLKREFS
331
29071
102
}
1001
ACAD
1000
DesignCenter Data
1002
{
1070
     1
1070
     1
1002
}
  0
BLOCK_RECORD
  5
29072
102
{ACAD_XDICTIONARY
360
29089
102
}
330
1
100
AcDbSymbolTableRecord
100
AcDbBlockTableRecord
  2
ASPCICM2973T
340
0
102
{BLKREFS
331
2908D
102
}
1001
ACAD
1000
DesignCenter Data
1002
{
1070
     1
1070
     1
1002
}
  0
BLOCK_RECORD
  5
2908E
102
{ACAD_XDICTIONARY
360
290AF
102
}
330
1
100
AcDbSymbolTableRecord
100
AcDbBlockTableRecord
  2
ASPCICM3571T
340
0
102
{BLKREFS
331
290B3
102
}
1001
ACAD
1000
DesignCenter Data
1002
{
1070
     1
1070
     1
1002
}
  0
BLOCK_RECORD
  5
290B4
102
{ACAD_XDICTIONARY
360
290C8
102
}
330
1
100
AcDbSymbolTableRecord
100
AcDbBlockTableRecord
  2
ASPCICM2971T
340
0
102
{BLKREFS
331
290CC
102
}
1001
ACAD
1000
DesignCenter Data
1002
{
1070
     1
1070
     1
1002
}
  0
BLOCK_RECORD
  5
290CD
102
{ACAD_XDICTIONARY
360
290EE
102
}
330
1
100
AcDbSymbolTableRecord
100
AcDbBlockTableRecord
  2
ASPCICM3565T
340
0
102
{BLKREFS
331
290F2
102
}
1001
ACAD
1000
DesignCenter Data
1002
{
1070
     1
1070
     1
1002
}
  0
BLOCK_RECORD
  5
290F3
102
{ACAD_XDICTIONARY
360
29107
102
}
330
1
100
AcDbSymbolTableRecord
100
AcDbBlockTableRecord
  2
ASPCICM2965T
340
0
102
{BLKREFS
331
2910B
102
}
1001
ACAD
1000
DesignCenter Data
1002
{
1070
     1
1070
     1
1002
}
  0
BLOCK_RECORD
  5
2910C
102
{ACAD_XDICTIONARY
360
29125
102
}
330
1
100
AcDbSymbolTableRecord
100
AcDbBlockTableRecord
  2
ASPCICM3559T
340
0
102
{BLKREFS
331
29129
102
}
1001
ACAD
1000
DesignCenter Data
1002
{
1070
     1
1070
     1
1002
}
  0
BLOCK_RECORD
  5
2912A
102
{ACAD_XDICTIONARY
360
2913B
102
}
330
1
100
AcDbSymbolTableRecord
100
AcDbBlockTableRecord
  2
ASPCICM2959T
340
0
102
{BLKREFS
331
2913F
102
}
1001
ACAD
1000
DesignCenter Data
1002
{
1070
     1
1070
     1
1002
}
  0
BLOCK_RECORD
  5
29140
102
{ACAD_XDICTIONARY
360
29155
102
}
330
1
100
AcDbSymbolTableRecord
100
AcDbBlockTableRecord
  2
ASPCICM3553T
340
0
102
{BLKREFS
331
29159
102
}
1001
ACAD
1000
DesignCenter Data
1002
{
1070
     1
1070
     1
1002
}
  0
BLOCK_RECORD
  5
2915A
102
{ACAD_XDICTIONARY
360
2916B
102
}
330
1
100
AcDbSymbolTableRecord
100
AcDbBlockTableRecord
  2
ASPCICM2953T
340
0
102
{BLKREFS
331
2916F
102
}
1001
ACAD
1000
DesignCenter Data
1002
{
1070
     1
1070
     1
1002
}
  0
BLOCK_RECORD
  5
29170
102
{ACAD_XDICTIONARY
360
29181
102
}
330
1
100
AcDbSymbolTableRecord
100
AcDbBlockTableRecord
  2
ASPCICM3547T
340
0
102
{BLKREFS
331
29185
102
}
1001
ACAD
1000
DesignCenter Data
1002
{
1070
     1
1070
     1
1002
}
  0
BLOCK_RECORD
  5
29186
102
{ACAD_XDICTIONARY
360
29194
102
}
330
1
100
AcDbSymbolTableRecord
100
AcDbBlockTableRecord
  2
ASPCICM2947T
340
0
102
{BLKREFS
331
29198
102
}
1001
ACAD
1000
DesignCenter Data
1002
{
1070
     1
1070
     1
1002
}
  0
BLOCK_RECORD
  5
29199
102
{ACAD_XDICTIONARY
360
291AA
102
}
330
1
100
AcDbSymbolTableRecord
100
AcDbBlockTableRecord
  2
ASPCICM3541T
340
0
102
{BLKREFS
331
291AE
102
}
1001
ACAD
1000
DesignCenter Data
1002
{
1070
     1
1070
     1
1002
}
  0
BLOCK_RECORD
  5
291AF
102
{ACAD_XDICTIONARY
360
291BD
102
}
330
1
100
AcDbSymbolTableRecord
100
AcDbBlockTableRecord
  2
ASPCICM2941T
340
0
102
{BLKREFS
331
291C1
102
}
1001
ACAD
1000
DesignCenter Data
1002
{
1070
     1
1070
     1
1002
}
  0
BLOCK_RECORD
  5
291C2
102
{ACAD_XDICTIONARY
360
291D3
102
}
330
1
100
AcDbSymbolTableRecord
100
AcDbBlockTableRecord
  2
ASPCICM3535T
340
0
102
{BLKREFS
331
291D7
102
}
1001
ACAD
1000
DesignCenter Data
1002
{
1070
     1
1070
     1
1002
}
  0
BLOCK_RECORD
  5
291D8
102
{ACAD_XDICTIONARY
360
291E6
102
}
330
1
100
AcDbSymbolTableRecord
100
AcDbBlockTableRecord
  2
ASPCICM2935T
340
0
102
{BLKREFS
331
291EA
102
}
1001
ACAD
1000
DesignCenter Data
1002
{
1070
     1
1070
     1
1002
}
  0
ENDTAB
  0
ENDSEC
  0
SECTION
  2
BLOCKS
  0
BLOCK
  5
20
330
1F
100
AcDbEntity
  8
0
100
AcDbBlockBegin
  2
*Model_Space
 70
     0
 10
0.0
 20
0.0
 30
0.0
  3
*Model_Space
  1

  0
ENDBLK
  5
21
330
1F
100
AcDbEntity
  8
0
100
AcDbBlockEnd
  0
BLOCK
  5
1355B
330
13559
100
AcDbEntity
 67
     1
  8
0
100
AcDbBlockBegin
  2
*Paper_Space
 70
     0
 10
0.0
 20
0.0
 30
0.0
  3
*Paper_Space
  1

  0
ENDBLK
  5
1355C
330
13559
100
AcDbEntity
 67
     1
  8
0
100
AcDbBlockEnd
  0
BLOCK
  5
149C4
330
149C3
100
AcDbEntity
  8
0
100
AcDbBlockBegin
  2
341
 70
     0
 10
0.0
 20
0.0
 30
0.0
  3
341
  1

  0
TEXT
  5
29F4C
330
149C3
100
AcDbEntity
  8
Pel_TXT
100
AcDbText
 10
0.1281
 20
-0.025
 30
0.0
 40
0.05
  1
/
100
AcDbText
  0
TEXT
  5
29F4D
330
149C3
100
AcDbEntity
  8
Pel_TXT
100
AcDbText
 10
0.0881
 20
-0.0125
 30
0.0
 40
0.05
  1
3
100
AcDbText
  0
TEXT
  5
29F4E
330
149C3
100
AcDbEntity
  8
Pel_TXT
100
AcDbText
 10
0.1881
 20
-0.03125
 30
0.0
 40
0.07
  1
"
100
AcDbText
  0
TEXT
  5
29F4F
330
149C3
100
AcDbEntity
  8
Pel_TXT
100
AcDbText
 10
0.1531
 20
-0.0375
 30
0.0
 40
0.05
  1
4
100
AcDbText
  0
POINT
  5
29F50
330
149C3
100
AcDbEntity
  8
Pel_Points
100
AcDbPoint
 10
0.0
 20
0.0
 30
0.0
  0
ENDBLK
  5
149C9
330
149C3
100
AcDbEntity
  8
0
100
AcDbBlockEnd
  0
BLOCK
  5
1571E
330
1571D
100
AcDbEntity
  8
0
100
AcDbBlockBegin
  2
342
 70
     0
 10
0.0
 20
0.0
 30
0.0
  3
342
  1

  0
TEXT
  5
29F51
330
1571D
100
AcDbEntity
  8
Pel_TXT
100
AcDbText
 10
0.1075
 20
-0.0125
 30
0.0
 40
0.05
  1
3
100
AcDbText
  0
TEXT
  5
29F52
330
1571D
100
AcDbEntity
  8
Pel_TXT
100
AcDbText
 10
0.1526362781298042
 20
-0.025
 30
0.0
 40
0.05
  1
/
100
AcDbText
  0
TEXT
  5
29F53
330
1571D
100
AcDbEntity
  8
Pel_TXT
100
AcDbText
 10
0.1825000000000001
 20
-0.0375
 30
0.0
 40
0.05
  1
4
100
AcDbText
  0
TEXT
  5
29F54
330
1571D
100
AcDbEntity
  8
Pel_TXT
100
AcDbText
 10
0.2175000000000001
 20
-0.03125
 30
0.0
 40
0.07
  1
"
100
AcDbText
  0
POINT
  5
29F55
330
1571D
100
AcDbEntity
  8
Pel_Points
100
AcDbPoint
 10
0.0
 20
0.0
 30
0.0
  0
ENDBLK
  5
15723
330
1571D
100
AcDbEntity
  8
0
100
AcDbBlockEnd
  0
BLOCK
  5
19862
330
19861
100
AcDbEntity
  8
0
100
AcDbBlockBegin
  2
E
 70
     0
 10
0.0
 20
0.0
 30
0.0
  3
E
  1

  0
TEXT
  5
19D23
330
19861
100
AcDbEntity
  8
Pel_TXT
100
AcDbText
 10
-0.0063991799060941
 20
-0.0000000000000001
 30
0.0
 40
0.05989583525
  1
E
 72
     4
 11
0.0215059056844584
 21
0.0299479176249999
 31
0.0
100
AcDbText
  0
ENDBLK
  5
19864
330
19861
100
AcDbEntity
  8
0
100
AcDbBlockEnd
  0
BLOCK
  5
19866
330
19865
100
AcDbEntity
  8
0
100
AcDbBlockBegin
  2
E1
 70
     0
 10
0.0
 20
0.0
 30
0.0
  3
E1
  1

  0
TEXT
  5
1F5D6
330
19865
100
AcDbEntity
  8
Pel_TXT
100
AcDbText
 10
-0.0062876013549623
 20
-0.0000003763210627
 30
0.0
 40
0.05989583525
  1
E
 72
     4
 11
0.0216174842355902
 21
0.0299475413039374
 31
0.0
100
AcDbText
  0
TEXT
  5
1F5D7
330
19865
100
AcDbEntity
  8
Pel_TXT
100
AcDbText
 10
0.0488328040133005
 20
-0.0000003763210627
 30
0.0
 40
0.04072916797
  1
1
100
AcDbText
  0
ENDBLK
  5
19869
330
19865
100
AcDbEntity
  8
0
100
AcDbBlockEnd
  0
BLOCK
  5
1F197
330
1F196
100
AcDbEntity
  8
0
100
AcDbBlockBegin
  2
E3
 70
     0
 10
0.0
 20
0.0
 30
0.0
  3
E3
  1

  0
TEXT
  5
1F5DA
330
1F196
100
AcDbEntity
  8
Pel_TXT
100
AcDbText
 10
-0.0062876013549623
 20
-0.0000003763210627
 30
0.0
 40
0.05989583525
  1
E
 72
     4
 11
0.0216174842355902
 21
0.0299475413039374
 31
0.0
100
AcDbText
  0
TEXT
  5
1F5DB
330
1F196
100
AcDbEntity
  8
Pel_TXT
100
AcDbText
 10
0.0488328040133005
 20
-0.0000003763210627
 30
0.0
 40
0.04072916797
  1
3
100
AcDbText
  0
ENDBLK
  5
1F19A
330
1F196
100
AcDbEntity
  8
0
100
AcDbBlockEnd
  0
BLOCK
  5
1F19C
330
1F19B
100
AcDbEntity
  8
0
100
AcDbBlockBegin
  2
E2
 70
     0
 10
0.0
 20
0.0
 30
0.0
  3
E2
  1

  0
TEXT
  5
1F5D8
330
1F19B
100
AcDbEntity
  8
Pel_TXT
100
AcDbText
 10
-0.0062876013549623
 20
-0.0000003763210627
 30
0.0
 40
0.05989583525
  1
E
 72
     4
 11
0.0216174842355902
 21
0.0299475413039374
 31
0.0
100
AcDbText
  0
TEXT
  5
1F5D9
330
1F19B
100
AcDbEntity
  8
Pel_TXT
100
AcDbText
 10
0.0488328040133005
 20
-0.0000003763210627
 30
0.0
 40
0.04072916797
  1
2
100
AcDbText
  0
ENDBLK
  5
1F19F
330
1F19B
100
AcDbEntity
  8
0
100
AcDbBlockEnd
  0
BLOCK
  5
263E8
330
263E7
100
AcDbEntity
  8
0
100
AcDbBlockBegin
  2
ASPCITT1747T
 70
     0
 10
0.0
 20
0.0
 30
0.0
  3
ASPCITT1747T
  1

  0
POLYLINE
  5
263EA
330
263E7
100
AcDbEntity
  8
Pel_Frame_Outside
100
AcDb2dPolyline
 66
     1
 10
0.0
 20
0.0
 30
0.0
 70
     1
  0
VERTEX
  5
29B1F
330
263EA
100
AcDbEntity
  8
Pel_Frame_Outside
100
AcDbVertex
100
AcDb2dVertex
 10
0.0
 20
0.0
 30
0.0
  0
VERTEX
  5
29B20
330
263EA
100
AcDbEntity
  8
Pel_Frame_Outside
100
AcDbVertex
100
AcDb2dVertex
 10
17.0
 20
0.0
 30
0.0
  0
VERTEX
  5
29B21
330
263EA
100
AcDbEntity
  8
Pel_Frame_Outside
100
AcDbVertex
100
AcDb2dVertex
 10
17.0
 20
47.0
 30
0.0
  0
VERTEX
  5
29B22
330
263EA
100
AcDbEntity
  8
Pel_Frame_Outside
100
AcDbVertex
100
AcDb2dVertex
 10
0.0
 20
47.0
 30
0.0
  0
SEQEND
  5
29B23
330
263EA
100
AcDbEntity
  8
Pel_Frame_Outside
  0
POLYLINE
  5
263F0
330
263E7
100
AcDbEntity
  8
Pel_Sash_Outside
100
AcDb2dPolyline
 66
     1
 10
0.0
 20
0.0
 30
0.0
 70
     1
  0
VERTEX
  5
29B25
330
263F0
100
AcDbEntity
  8
Pel_Sash_Outside
100
AcDbVertex
100
AcDb2dVertex
 10
1.625
 20
1.625
 30
0.0
  0
VERTEX
  5
29B26
330
263F0
100
AcDbEntity
  8
Pel_Sash_Outside
100
AcDbVertex
100
AcDb2dVertex
 10
15.375
 20
1.625
 30
0.0
  0
VERTEX
  5
29B27
330
263F0
100
AcDbEntity
  8
Pel_Sash_Outside
100
AcDbVertex
100
AcDb2dVertex
 10
15.375
 20
45.375
 30
0.0
  0
VERTEX
  5
29B28
330
263F0
100
AcDbEntity
  8
Pel_Sash_Outside
100
AcDbVertex
100
AcDb2dVertex
 10
1.625
 20
45.375
 30
0.0
  0
SEQEND
  5
29B29
330
263F0
100
AcDbEntity
  8
Pel_Sash_Outside
  0
LWPOLYLINE
  5
29703
330
263E7
100
AcDbEntity
  8
Pel_Sash_Inside
100
AcDbPolyline
 90
        4
 70
     1
 43
0.0
 10
12.375
 20
42.37499999999999
 10
12.375
 20
4.625
 10
4.625
 20
4.625
 10
4.625
 20
42.37499999999999
  0
LWPOLYLINE
  5
29704
330
263E7
100
AcDbEntity
  8
Pel_Muntin_AS
100
AcDbPolyline
 90
        4
 70
     1
 43
0.0
 10
12.375
 20
16.62432999999998
 10
8.937999999999988
 20
16.62432999999998
 10
8.937999999999988
 20
4.625
 10
12.375
 20
4.625
  0
LWPOLYLINE
  5
29705
330
263E7
100
AcDbEntity
  8
Pel_Muntin_AS
100
AcDbPolyline
 90
        4
 70
     1
 43
0.0
 10
8.062000000000011
 20
16.62432999999998
 10
4.625
 20
16.62432999999998
 10
4.625
 20
4.625
 10
8.062000000000011
 20
4.625
  0
LWPOLYLINE
  5
29706
330
263E7
100
AcDbEntity
  8
Pel_Muntin_AS
100
AcDbPolyline
 90
        4
 70
     1
 43
0.0
 10
8.062000000000011
 20
29.49966999999992
 10
4.625
 20
29.49966999999992
 10
4.625
 20
17.50033000000007
 10
8.062000000000011
 20
17.50033000000007
  0
LWPOLYLINE
  5
29707
330
263E7
100
AcDbEntity
  8
Pel_Muntin_AS
100
AcDbPolyline
 90
        4
 70
     1
 43
0.0
 10
12.375
 20
29.49966999999992
 10
8.937999999999988
 20
29.49966999999992
 10
8.937999999999988
 20
17.50033000000007
 10
12.375
 20
17.50033000000007
  0
LWPOLYLINE
  5
29708
330
263E7
100
AcDbEntity
  8
Pel_Muntin_AS
100
AcDbPolyline
 90
        4
 70
     1
 43
0.0
 10
12.375
 20
42.37499999999999
 10
8.937999999999988
 20
42.37499999999999
 10
8.937999999999988
 20
30.37567000000001
 10
12.375
 20
30.37567000000001
  0
LWPOLYLINE
  5
29709
330
263E7
100
AcDbEntity
  8
Pel_Muntin_AS
100
AcDbPolyline
 90
        4
 70
     1
 43
0.0
 10
8.062000000000011
 20
42.37499999999999
 10
4.625
 20
42.37499999999999
 10
4.625
 20
30.37567000000001
 10
8.062000000000011
 20
30.37567000000001
  0
LWPOLYLINE
  5
29B31
330
263E7
100
AcDbEntity
  8
Pel_Hinging
 48
6.0
100
AcDbPolyline
 90
        5
 70
     0
 43
0.0
 10
1.625
 20
45.375
 10
8.5
 20
1.625
 10
15.375
 20
45.375
 10
1.625
 20
23.5
 10
15.375
 20
1.625
  0
ENDBLK
  5
263E9
330
263E7
100
AcDbEntity
  8
0
100
AcDbBlockEnd
  0
BLOCK
  5
28E94
330
28E87
100
AcDbEntity
  8
0
100
AcDbBlockBegin
  2
ASPCITT1735T
 70
     0
 10
0.0
 20
0.0
 30
0.0
  3
ASPCITT1735T
  1

  0
LWPOLYLINE
  5
28E88
330
28E87
100
AcDbEntity
  8
Pel_Frame_Outside
100
AcDbPolyline
 90
        4
 70
     1
 43
0.0
 10
0.0
 20
0.0
 10
17.0
 20
0.0
 10
17.0
 20
35.0
 10
0.0
 20
35.0
  0
LWPOLYLINE
  5
28E89
330
28E87
100
AcDbEntity
  8
Pel_Sash_Outside
100
AcDbPolyline
 90
        4
 70
     1
 43
0.0
 10
1.625
 20
33.375
 10
15.375
 20
33.375
 10
15.375
 20
1.625
 10
1.625
 20
1.625
  0
LWPOLYLINE
  5
28E8A
330
28E87
100
AcDbEntity
  8
Pel_Sash_Inside
100
AcDbPolyline
 90
        4
 70
     1
 43
0.0
 10
12.375
 20
30.375
 10
12.375
 20
4.625
 10
4.625
 20
4.625
 10
4.625
 20
30.375
  0
LWPOLYLINE
  5
28E8C
330
28E87
100
AcDbEntity
  8
Pel_Muntin_AS
100
AcDbPolyline
 90
        4
 70
     1
 43
0.0
 10
12.375
 20
12.62432999999999
 10
8.937999999999988
 20
12.62432999999999
 10
8.937999999999988
 20
4.625
 10
12.375
 20
4.625
  0
LWPOLYLINE
  5
28E8D
330
28E87
100
AcDbEntity
  8
Pel_Muntin_AS
100
AcDbPolyline
 90
        4
 70
     1
 43
0.0
 10
8.062000000000011
 20
12.62432999999999
 10
4.625
 20
12.62432999999999
 10
4.625
 20
4.625
 10
8.062000000000011
 20
4.625
  0
LWPOLYLINE
  5
28E8E
330
28E87
100
AcDbEntity
  8
Pel_Muntin_AS
100
AcDbPolyline
 90
        4
 70
     1
 43
0.0
 10
8.062000000000011
 20
21.49967000000004
 10
4.625
 20
21.49967000000004
 10
4.625
 20
13.50032999999996
 10
8.062000000000011
 20
13.50032999999996
  0
LWPOLYLINE
  5
28E8F
330
28E87
100
AcDbEntity
  8
Pel_Muntin_AS
100
AcDbPolyline
 90
        4
 70
     1
 43
0.0
 10
12.375
 20
21.49967000000004
 10
8.937999999999988
 20
21.49967000000004
 10
8.937999999999988
 20
13.50032999999996
 10
12.375
 20
13.50032999999996
  0
LWPOLYLINE
  5
28E90
330
28E87
100
AcDbEntity
  8
Pel_Muntin_AS
100
AcDbPolyline
 90
        4
 70
     1
 43
0.0
 10
12.375
 20
30.375
 10
8.937999999999988
 20
30.375
 10
8.937999999999988
 20
22.37567000000002
 10
12.375
 20
22.37567000000002
  0
LWPOLYLINE
  5
28E91
330
28E87
100
AcDbEntity
  8
Pel_Muntin_AS
100
AcDbPolyline
 90
        4
 70
     1
 43
0.0
 10
8.062000000000011
 20
30.375
 10
4.625
 20
30.375
 10
4.625
 20
22.37567000000002
 10
8.062000000000011
 20
22.37567000000002
  0
LWPOLYLINE
  5
299E6
330
28E87
100
AcDbEntity
  8
Pel_Hinging
 48
6.0
100
AcDbPolyline
 90
        5
 70
     0
 43
0.0
 10
1.625
 20
33.375
 10
8.5
 20
1.625
 10
15.375
 20
33.375
 10
1.625
 20
17.5
 10
15.375
 20
1.625
  0
ENDBLK
  5
28E95
330
28E87
100
AcDbEntity
  8
0
100
AcDbBlockEnd
  0
BLOCK
  5
28EA5
330
28E98
100
AcDbEntity
  8
0
100
AcDbBlockBegin
  2
ASPCITT1741T
 70
     0
 10
0.0
 20
0.0
 30
0.0
  3
ASPCITT1741T
  1

  0
LWPOLYLINE
  5
28E99
330
28E98
100
AcDbEntity
  8
Pel_Frame_Outside
100
AcDbPolyline
 90
        4
 70
     1
 43
0.0
 10
0.0
 20
0.0
 10
17.0
 20
0.0
 10
17.0
 20
41.0
 10
0.0
 20
41.0
  0
LWPOLYLINE
  5
28E9A
330
28E98
100
AcDbEntity
  8
Pel_Sash_Outside
100
AcDbPolyline
 90
        4
 70
     1
 43
0.0
 10
1.625
 20
39.375
 10
15.375
 20
39.375
 10
15.375
 20
1.625
 10
1.625
 20
1.625
  0
LWPOLYLINE
  5
28E9B
330
28E98
100
AcDbEntity
  8
Pel_Sash_Inside
100
AcDbPolyline
 90
        4
 70
     1
 43
0.0
 10
12.375
 20
36.375
 10
12.375
 20
4.625
 10
4.625
 20
4.625
 10
4.625
 20
36.375
  0
LWPOLYLINE
  5
28E9D
330
28E98
100
AcDbEntity
  8
Pel_Muntin_AS
100
AcDbPolyline
 90
        4
 70
     1
 43
0.0
 10
12.375
 20
14.62432999999998
 10
8.937999999999988
 20
14.62432999999998
 10
8.937999999999988
 20
4.625
 10
12.375
 20
4.625
  0
LWPOLYLINE
  5
28E9E
330
28E98
100
AcDbEntity
  8
Pel_Muntin_AS
100
AcDbPolyline
 90
        4
 70
     1
 43
0.0
 10
8.062000000000011
 20
14.62432999999998
 10
4.625
 20
14.62432999999998
 10
4.625
 20
4.625
 10
8.062000000000011
 20
4.625
  0
LWPOLYLINE
  5
28E9F
330
28E98
100
AcDbEntity
  8
Pel_Muntin_AS
100
AcDbPolyline
 90
        4
 70
     1
 43
0.0
 10
8.062000000000011
 20
25.49967000000004
 10
4.625
 20
25.49967000000004
 10
4.625
 20
15.50032999999996
 10
8.062000000000011
 20
15.50032999999996
  0
LWPOLYLINE
  5
28EA0
330
28E98
100
AcDbEntity
  8
Pel_Muntin_AS
100
AcDbPolyline
 90
        4
 70
     1
 43
0.0
 10
12.375
 20
25.49967000000004
 10
8.937999999999988
 20
25.49967000000004
 10
8.937999999999988
 20
15.50032999999996
 10
12.375
 20
15.50032999999996
  0
LWPOLYLINE
  5
28EA1
330
28E98
100
AcDbEntity
  8
Pel_Muntin_AS
100
AcDbPolyline
 90
        4
 70
     1
 43
0.0
 10
12.375
 20
36.375
 10
8.937999999999988
 20
36.375
 10
8.937999999999988
 20
26.37567000000001
 10
12.375
 20
26.37567000000001
  0
LWPOLYLINE
  5
28EA2
330
28E98
100
AcDbEntity
  8
Pel_Muntin_AS
100
AcDbPolyline
 90
        4
 70
     1
 43
0.0
 10
8.062000000000011
 20
36.375
 10
4.625
 20
36.375
 10
4.625
 20
26.37567000000001
 10
8.062000000000011
 20
26.37567000000001
  0
LWPOLYLINE
  5
29AFE
330
28E98
100
AcDbEntity
  8
Pel_Hinging
 48
6.0
100
AcDbPolyline
 90
        5
 70
     0
 43
0.0
 10
1.625
 20
39.375
 10
8.5
 20
1.625
 10
15.375
 20
39.375
 10
1.625
 20
20.5
 10
15.375
 20
1.625
  0
ENDBLK
  5
28EA6
330
28E98
100
AcDbEntity
  8
0
100
AcDbBlockEnd
  0
BLOCK
  5
28EB7
330
28EA8
100
AcDbEntity
  8
0
100
AcDbBlockBegin
  2
ASPCICM1753T
 70
     0
 10
0.0
 20
0.0
 30
0.0
  3
ASPCICM1753T
  1

  0
LWPOLYLINE
  5
28EA9
330
28EA8
100
AcDbEntity
  8
Pel_Frame_Outside
100
AcDbPolyline
 90
        4
 70
     1
 43
0.0
 10
0.0
 20
0.0
 10
17.0
 20
0.0
 10
17.0
 20
53.0
 10
0.0
 20
53.0
  0
LWPOLYLINE
  5
28EAA
330
28EA8
100
AcDbEntity
  8
Pel_Sash_Outside
100
AcDbPolyline
 90
        4
 70
     1
 43
0.0
 10
1.625
 20
51.375
 10
15.375
 20
51.375
 10
15.375
 20
1.625
 10
1.625
 20
1.625
  0
LWPOLYLINE
  5
28EAB
330
28EA8
100
AcDbEntity
  8
Pel_Sash_Inside
100
AcDbPolyline
 90
        4
 70
     1
 43
0.0
 10
12.375
 20
48.375
 10
12.375
 20
4.625
 10
4.625
 20
4.625
 10
4.625
 20
48.375
  0
LWPOLYLINE
  5
28EAD
330
28EA8
100
AcDbEntity
  8
Pel_Muntin_AS
100
AcDbPolyline
 90
        4
 70
     1
 43
0.0
 10
12.375
 20
14.90550000000002
 10
8.937999999999988
 20
14.90550000000002
 10
8.937999999999988
 20
4.625
 10
12.375
 20
4.625
  0
LWPOLYLINE
  5
28EAE
330
28EA8
100
AcDbEntity
  8
Pel_Muntin_AS
100
AcDbPolyline
 90
        4
 70
     1
 43
0.0
 10
8.062000000000011
 20
14.90550000000002
 10
4.625
 20
14.90550000000002
 10
4.625
 20
4.625
 10
8.062000000000011
 20
4.625
  0
LWPOLYLINE
  5
28EAF
330
28EA8
100
AcDbEntity
  8
Pel_Muntin_AS
100
AcDbPolyline
 90
        4
 70
     1
 43
0.0
 10
8.062000000000011
 20
26.06200000000001
 10
4.625
 20
26.06200000000001
 10
4.625
 20
15.78149999999999
 10
8.062000000000011
 20
15.78149999999999
  0
LWPOLYLINE
  5
28EB0
330
28EA8
100
AcDbEntity
  8
Pel_Muntin_AS
100
AcDbPolyline
 90
        4
 70
     1
 43
0.0
 10
12.375
 20
26.06200000000001
 10
8.937999999999988
 20
26.06200000000001
 10
8.937999999999988
 20
15.78149999999999
 10
12.375
 20
15.78149999999999
  0
LWPOLYLINE
  5
28EB1
330
28EA8
100
AcDbEntity
  8
Pel_Muntin_AS
100
AcDbPolyline
 90
        4
 70
     1
 43
0.0
 10
12.375
 20
48.375
 10
8.937999999999988
 20
48.375
 10
8.937999999999988
 20
38.09450000000004
 10
12.375
 20
38.09450000000004
  0
LWPOLYLINE
  5
28EB2
330
28EA8
100
AcDbEntity
  8
Pel_Muntin_AS
100
AcDbPolyline
 90
        4
 70
     1
 43
0.0
 10
8.062000000000011
 20
48.375
 10
4.625
 20
48.375
 10
4.625
 20
38.09450000000004
 10
8.062000000000011
 20
38.09450000000004
  0
LWPOLYLINE
  5
28EB3
330
28EA8
100
AcDbEntity
  8
Pel_Muntin_AS
100
AcDbPolyline
 90
        4
 70
     1
 43
0.0
 10
8.062000000000011
 20
37.21850000000006
 10
4.625
 20
37.21850000000006
 10
4.625
 20
26.93799999999999
 10
8.062000000000011
 20
26.93799999999999
  0
LWPOLYLINE
  5
28EB4
330
28EA8
100
AcDbEntity
  8
Pel_Muntin_AS
100
AcDbPolyline
 90
        4
 70
     1
 43
0.0
 10
12.375
 20
37.21850000000006
 10
8.937999999999988
 20
37.21850000000006
 10
8.937999999999988
 20
26.93799999999999
 10
12.375
 20
26.93799999999999
  0
LWPOLYLINE
  5
29C65
330
28EA8
100
AcDbEntity
  8
Pel_Hinging
 48
6.0
100
AcDbPolyline
 90
        5
 70
     0
 43
0.0
 10
1.625
 20
51.375
 10
8.5
 20
1.625
 10
15.375
 20
51.375
 10
1.625
 20
26.5
 10
15.375
 20
1.625
  0
ENDBLK
  5
28EB8
330
28EA8
100
AcDbEntity
  8
0
100
AcDbBlockEnd
  0
BLOCK
  5
28EC9
330
28EBA
100
AcDbEntity
  8
0
100
AcDbBlockBegin
  2
ASPCICM1759T
 70
     0
 10
0.0
 20
0.0
 30
0.0
  3
ASPCICM1759T
  1

  0
LWPOLYLINE
  5
28EBB
330
28EBA
100
AcDbEntity
  8
Pel_Frame_Outside
100
AcDbPolyline
 90
        4
 70
     1
 43
0.0
 10
0.0
 20
0.0
 10
17.0
 20
0.0
 10
17.0
 20
59.0
 10
0.0
 20
59.0
  0
LWPOLYLINE
  5
28EBC
330
28EBA
100
AcDbEntity
  8
Pel_Sash_Outside
100
AcDbPolyline
 90
        4
 70
     1
 43
0.0
 10
1.625
 20
57.375
 10
15.375
 20
57.375
 10
15.375
 20
1.625
 10
1.625
 20
1.625
  0
LWPOLYLINE
  5
28EBD
330
28EBA
100
AcDbEntity
  8
Pel_Sash_Inside
100
AcDbPolyline
 90
        4
 70
     1
 43
0.0
 10
12.375
 20
54.375
 10
12.375
 20
4.625
 10
4.625
 20
4.625
 10
4.625
 20
54.375
  0
LWPOLYLINE
  5
28EBF
330
28EBA
100
AcDbEntity
  8
Pel_Muntin_AS
100
AcDbPolyline
 90
        4
 70
     1
 43
0.0
 10
12.375
 20
16.40550000000002
 10
8.937999999999988
 20
16.40550000000002
 10
8.937999999999988
 20
4.625
 10
12.375
 20
4.625
  0
LWPOLYLINE
  5
28EC0
330
28EBA
100
AcDbEntity
  8
Pel_Muntin_AS
100
AcDbPolyline
 90
        4
 70
     1
 43
0.0
 10
8.062000000000011
 20
16.40550000000002
 10
4.625
 20
16.40550000000002
 10
4.625
 20
4.625
 10
8.062000000000011
 20
4.625
  0
LWPOLYLINE
  5
28EC1
330
28EBA
100
AcDbEntity
  8
Pel_Muntin_AS
100
AcDbPolyline
 90
        4
 70
     1
 43
0.0
 10
8.062000000000011
 20
29.06200000000001
 10
4.625
 20
29.06200000000001
 10
4.625
 20
17.28149999999999
 10
8.062000000000011
 20
17.28149999999999
  0
LWPOLYLINE
  5
28EC2
330
28EBA
100
AcDbEntity
  8
Pel_Muntin_AS
100
AcDbPolyline
 90
        4
 70
     1
 43
0.0
 10
12.375
 20
29.06200000000001
 10
8.937999999999988
 20
29.06200000000001
 10
8.937999999999988
 20
17.28149999999999
 10
12.375
 20
17.28149999999999
  0
LWPOLYLINE
  5
28EC3
330
28EBA
100
AcDbEntity
  8
Pel_Muntin_AS
100
AcDbPolyline
 90
        4
 70
     1
 43
0.0
 10
12.375
 20
54.375
 10
8.937999999999988
 20
54.375
 10
8.937999999999988
 20
42.59449999999998
 10
12.375
 20
42.59449999999998
  0
LWPOLYLINE
  5
28EC4
330
28EBA
100
AcDbEntity
  8
Pel_Muntin_AS
100
AcDbPolyline
 90
        4
 70
     1
 43
0.0
 10
8.062000000000011
 20
54.375
 10
4.625
 20
54.375
 10
4.625
 20
42.59449999999998
 10
8.062000000000011
 20
42.59449999999998
  0
LWPOLYLINE
  5
28EC5
330
28EBA
100
AcDbEntity
  8
Pel_Muntin_AS
100
AcDbPolyline
 90
        4
 70
     1
 43
0.0
 10
8.062000000000011
 20
41.7185
 10
4.625
 20
41.7185
 10
4.625
 20
29.93799999999999
 10
8.062000000000011
 20
29.93799999999999
  0
LWPOLYLINE
  5
28EC6
330
28EBA
100
AcDbEntity
  8
Pel_Muntin_AS
100
AcDbPolyline
 90
        4
 70
     1
 43
0.0
 10
12.375
 20
41.7185
 10
8.937999999999988
 20
41.7185
 10
8.937999999999988
 20
29.93799999999999
 10
12.375
 20
29.93799999999999
  0
LWPOLYLINE
  5
29D21
330
28EBA
100
AcDbEntity
  8
Pel_Hinging
 48
6.0
100
AcDbPolyline
 90
        5
 70
     0
 43
0.0
 10
1.625
 20
57.375
 10
8.5
 20
1.625
 10
15.375
 20
57.375
 10
1.625
 20
29.5
 10
15.375
 20
1.625
  0
ENDBLK
  5
28ECA
330
28EBA
100
AcDbEntity
  8
0
100
AcDbBlockEnd
  0
BLOCK
  5
28EDD
330
28ECC
100
AcDbEntity
  8
0
100
AcDbBlockBegin
  2
ASPCICM1765T
 70
     0
 10
0.0
 20
0.0
 30
0.0
  3
ASPCICM1765T
  1

  0
LWPOLYLINE
  5
28ECD
330
28ECC
100
AcDbEntity
  8
Pel_Frame_Outside
100
AcDbPolyline
 90
        4
 70
     1
 43
0.0
 10
0.0
 20
0.0
 10
17.0
 20
0.0
 10
17.0
 20
65.0
 10
0.0
 20
65.0
  0
LWPOLYLINE
  5
28ECE
330
28ECC
100
AcDbEntity
  8
Pel_Sash_Outside
100
AcDbPolyline
 90
        4
 70
     1
 43
0.0
 10
1.625
 20
63.375
 10
15.375
 20
63.375
 10
15.375
 20
1.625
 10
1.625
 20
1.625
  0
LWPOLYLINE
  5
28ECF
330
28ECC
100
AcDbEntity
  8
Pel_Sash_Inside
100
AcDbPolyline
 90
        4
 70
     1
 43
0.0
 10
12.375
 20
60.375
 10
12.375
 20
4.625
 10
4.625
 20
4.625
 10
4.625
 20
60.375
  0
LWPOLYLINE
  5
28ED1
330
28ECC
100
AcDbEntity
  8
Pel_Muntin_AS
100
AcDbPolyline
 90
        4
 70
     1
 43
0.0
 10
12.375
 20
15.07420000000002
 10
8.937999999999988
 20
15.07420000000002
 10
8.937999999999988
 20
4.625
 10
12.375
 20
4.625
  0
LWPOLYLINE
  5
28ED2
330
28ECC
100
AcDbEntity
  8
Pel_Muntin_AS
100
AcDbPolyline
 90
        4
 70
     1
 43
0.0
 10
8.062000000000011
 20
15.07420000000002
 10
4.625
 20
15.07420000000002
 10
4.625
 20
4.625
 10
8.062000000000011
 20
4.625
  0
LWPOLYLINE
  5
28ED3
330
28ECC
100
AcDbEntity
  8
Pel_Muntin_AS
100
AcDbPolyline
 90
        4
 70
     1
 43
0.0
 10
8.062000000000011
 20
26.39940000000001
 10
4.625
 20
26.39940000000001
 10
4.625
 20
15.95019999999999
 10
8.062000000000011
 20
15.95019999999999
  0
LWPOLYLINE
  5
28ED4
330
28ECC
100
AcDbEntity
  8
Pel_Muntin_AS
100
AcDbPolyline
 90
        4
 70
     1
 43
0.0
 10
12.375
 20
26.39940000000001
 10
8.937999999999988
 20
26.39940000000001
 10
8.937999999999988
 20
15.95019999999999
 10
12.375
 20
15.95019999999999
  0
LWPOLYLINE
  5
28ED5
330
28ECC
100
AcDbEntity
  8
Pel_Muntin_AS
100
AcDbPolyline
 90
        4
 70
     1
 43
0.0
 10
12.375
 20
60.375
 10
8.937999999999988
 20
60.375
 10
8.937999999999988
 20
49.92579999999998
 10
12.375
 20
49.92579999999998
  0
LWPOLYLINE
  5
28ED6
330
28ECC
100
AcDbEntity
  8
Pel_Muntin_AS
100
AcDbPolyline
 90
        4
 70
     1
 43
0.0
 10
8.062000000000011
 20
60.375
 10
4.625
 20
60.375
 10
4.625
 20
49.92579999999998
 10
8.062000000000011
 20
49.92579999999998
  0
LWPOLYLINE
  5
28ED7
330
28ECC
100
AcDbEntity
  8
Pel_Muntin_AS
100
AcDbPolyline
 90
        4
 70
     1
 43
0.0
 10
8.062000000000011
 20
37.72460000000001
 10
4.625
 20
37.72460000000001
 10
4.625
 20
27.27539999999999
 10
8.062000000000011
 20
27.27539999999999
  0
LWPOLYLINE
  5
28ED8
330
28ECC
100
AcDbEntity
  8
Pel_Muntin_AS
100
AcDbPolyline
 90
        4
 70
     1
 43
0.0
 10
12.375
 20
37.72460000000001
 10
8.937999999999988
 20
37.72460000000001
 10
8.937999999999988
 20
27.27539999999999
 10
12.375
 20
27.27539999999999
  0
LWPOLYLINE
  5
28ED9
330
28ECC
100
AcDbEntity
  8
Pel_Muntin_AS
100
AcDbPolyline
 90
        4
 70
     1
 43
0.0
 10
8.062000000000011
 20
49.04980000000001
 10
4.625
 20
49.04980000000001
 10
4.625
 20
38.60059999999999
 10
8.062000000000011
 20
38.60059999999999
  0
LWPOLYLINE
  5
28EDA
330
28ECC
100
AcDbEntity
  8
Pel_Muntin_AS
100
AcDbPolyline
 90
        4
 70
     1
 43
0.0
 10
12.375
 20
49.04980000000001
 10
8.937999999999988
 20
49.04980000000001
 10
8.937999999999988
 20
38.60059999999999
 10
12.375
 20
38.60059999999999
  0
LWPOLYLINE
  5
29D3F
330
28ECC
100
AcDbEntity
  8
Pel_Hinging
 48
6.0
100
AcDbPolyline
 90
        5
 70
     0
 43
0.0
 10
1.625
 20
63.375
 10
8.5
 20
1.625
 10
15.375
 20
63.375
 10
1.625
 20
32.5
 10
15.375
 20
1.625
  0
ENDBLK
  5
28EDE
330
28ECC
100
AcDbEntity
  8
0
100
AcDbBlockEnd
  0
BLOCK
  5
28EED
330
28EE0
100
AcDbEntity
  8
0
100
AcDbBlockBegin
  2
ASPCICM2135T
 70
     0
 10
0.0
 20
0.0
 30
0.0
  3
ASPCICM2135T
  1

  0
LWPOLYLINE
  5
28EE1
330
28EE0
100
AcDbEntity
  8
Pel_Frame_Outside
100
AcDbPolyline
 90
        4
 70
     1
 43
0.0
 10
0.0
 20
0.0
 10
21.0
 20
0.0
 10
21.0
 20
35.0
 10
0.0
 20
35.0
  0
LWPOLYLINE
  5
28EE2
330
28EE0
100
AcDbEntity
  8
Pel_Sash_Outside
100
AcDbPolyline
 90
        4
 70
     1
 43
0.0
 10
1.625
 20
33.375
 10
19.375
 20
33.375
 10
19.375
 20
1.625
 10
1.625
 20
1.625
  0
LWPOLYLINE
  5
28EE3
330
28EE0
100
AcDbEntity
  8
Pel_Sash_Inside
100
AcDbPolyline
 90
        4
 70
     1
 43
0.0
 10
16.375
 20
30.375
 10
16.375
 20
4.625
 10
4.625
 20
4.625
 10
4.625
 20
30.375
  0
LWPOLYLINE
  5
28EE5
330
28EE0
100
AcDbEntity
  8
Pel_Muntin_AS
100
AcDbPolyline
 90
        4
 70
     1
 43
0.0
 10
16.375
 20
12.62432999999999
 10
10.93799999999998
 20
12.62432999999999
 10
10.93799999999998
 20
4.625
 10
16.375
 20
4.625
  0
LWPOLYLINE
  5
28EE6
330
28EE0
100
AcDbEntity
  8
Pel_Muntin_AS
100
AcDbPolyline
 90
        4
 70
     1
 43
0.0
 10
10.06200000000001
 20
12.62432999999999
 10
4.625
 20
12.62432999999999
 10
4.625
 20
4.625
 10
10.06200000000001
 20
4.625
  0
LWPOLYLINE
  5
28EE7
330
28EE0
100
AcDbEntity
  8
Pel_Muntin_AS
100
AcDbPolyline
 90
        4
 70
     1
 43
0.0
 10
10.06200000000001
 20
21.49967000000004
 10
4.625
 20
21.49967000000004
 10
4.625
 20
13.50032999999996
 10
10.06200000000001
 20
13.50032999999996
  0
LWPOLYLINE
  5
28EE8
330
28EE0
100
AcDbEntity
  8
Pel_Muntin_AS
100
AcDbPolyline
 90
        4
 70
     1
 43
0.0
 10
16.375
 20
21.49967000000004
 10
10.93799999999998
 20
21.49967000000004
 10
10.93799999999998
 20
13.50032999999996
 10
16.375
 20
13.50032999999996
  0
LWPOLYLINE
  5
28EE9
330
28EE0
100
AcDbEntity
  8
Pel_Muntin_AS
100
AcDbPolyline
 90
        4
 70
     1
 43
0.0
 10
16.375
 20
30.375
 10
10.93799999999998
 20
30.375
 10
10.93799999999998
 20
22.37567000000002
 10
16.375
 20
22.37567000000002
  0
LWPOLYLINE
  5
28EEA
330
28EE0
100
AcDbEntity
  8
Pel_Muntin_AS
100
AcDbPolyline
 90
        4
 70
     1
 43
0.0
 10
10.06200000000001
 20
30.375
 10
4.625
 20
30.375
 10
4.625
 20
22.37567000000002
 10
10.06200000000001
 20
22.37567000000002
  0
LWPOLYLINE
  5
299FC
330
28EE0
100
AcDbEntity
  8
Pel_Hinging
 48
6.0
100
AcDbPolyline
 90
        5
 70
     0
 43
0.0
 10
1.625
 20
33.375
 10
10.5
 20
1.625
 10
19.375
 20
33.375
 10
1.625
 20
17.5
 10
19.375
 20
1.625
  0
ENDBLK
  5
28EEE
330
28EE0
100
AcDbEntity
  8
0
100
AcDbBlockEnd
  0
BLOCK
  5
28EFD
330
28EF0
100
AcDbEntity
  8
0
100
AcDbBlockBegin
  2
ASPCICM2141T
 70
     0
 10
0.0
 20
0.0
 30
0.0
  3
ASPCICM2141T
  1

  0
LWPOLYLINE
  5
28EF1
330
28EF0
100
AcDbEntity
  8
Pel_Frame_Outside
100
AcDbPolyline
 90
        4
 70
     1
 43
0.0
 10
0.0
 20
0.0
 10
21.0
 20
0.0
 10
21.0
 20
41.0
 10
0.0
 20
41.0
  0
LWPOLYLINE
  5
28EF2
330
28EF0
100
AcDbEntity
  8
Pel_Sash_Outside
100
AcDbPolyline
 90
        4
 70
     1
 43
0.0
 10
1.625
 20
39.375
 10
19.375
 20
39.375
 10
19.375
 20
1.625
 10
1.625
 20
1.625
  0
LWPOLYLINE
  5
28EF3
330
28EF0
100
AcDbEntity
  8
Pel_Sash_Inside
100
AcDbPolyline
 90
        4
 70
     1
 43
0.0
 10
16.375
 20
36.375
 10
16.375
 20
4.625
 10
4.625
 20
4.625
 10
4.625
 20
36.375
  0
LWPOLYLINE
  5
28EF5
330
28EF0
100
AcDbEntity
  8
Pel_Muntin_AS
100
AcDbPolyline
 90
        4
 70
     1
 43
0.0
 10
16.375
 20
14.62432999999998
 10
10.93799999999998
 20
14.62432999999998
 10
10.93799999999998
 20
4.625
 10
16.375
 20
4.625
  0
LWPOLYLINE
  5
28EF6
330
28EF0
100
AcDbEntity
  8
Pel_Muntin_AS
100
AcDbPolyline
 90
        4
 70
     1
 43
0.0
 10
10.06200000000001
 20
14.62432999999998
 10
4.625
 20
14.62432999999998
 10
4.625
 20
4.625
 10
10.06200000000001
 20
4.625
  0
LWPOLYLINE
  5
28EF7
330
28EF0
100
AcDbEntity
  8
Pel_Muntin_AS
100
AcDbPolyline
 90
        4
 70
     1
 43
0.0
 10
10.06200000000001
 20
25.49966999999992
 10
4.625
 20
25.49966999999992
 10
4.625
 20
15.50033000000007
 10
10.06200000000001
 20
15.50033000000007
  0
LWPOLYLINE
  5
28EF8
330
28EF0
100
AcDbEntity
  8
Pel_Muntin_AS
100
AcDbPolyline
 90
        4
 70
     1
 43
0.0
 10
16.375
 20
25.49966999999992
 10
10.93799999999998
 20
25.49966999999992
 10
10.93799999999998
 20
15.50033000000007
 10
16.375
 20
15.50033000000007
  0
LWPOLYLINE
  5
28EF9
330
28EF0
100
AcDbEntity
  8
Pel_Muntin_AS
100
AcDbPolyline
 90
        4
 70
     1
 43
0.0
 10
16.375
 20
36.375
 10
10.93799999999998
 20
36.375
 10
10.93799999999998
 20
26.37567000000001
 10
16.375
 20
26.37567000000001
  0
LWPOLYLINE
  5
28EFA
330
28EF0
100
AcDbEntity
  8
Pel_Muntin_AS
100
AcDbPolyline
 90
        4
 70
     1
 43
0.0
 10
10.06200000000001
 20
36.375
 10
4.625
 20
36.375
 10
4.625
 20
26.37567000000001
 10
10.06200000000001
 20
26.37567000000001
  0
LWPOLYLINE
  5
29AE8
330
28EF0
100
AcDbEntity
  8
Pel_Hinging
 48
6.0
100
AcDbPolyline
 90
        5
 70
     0
 43
0.0
 10
1.625
 20
39.375
 10
10.5
 20
1.625
 10
19.375
 20
39.375
 10
1.625
 20
20.5
 10
19.375
 20
1.625
  0
ENDBLK
  5
28EFE
330
28EF0
100
AcDbEntity
  8
0
100
AcDbBlockEnd
  0
BLOCK
  5
28F0D
330
28F00
100
AcDbEntity
  8
0
100
AcDbBlockBegin
  2
ASPCICM2147T
 70
     0
 10
0.0
 20
0.0
 30
0.0
  3
ASPCICM2147T
  1

  0
LWPOLYLINE
  5
28F01
330
28F00
100
AcDbEntity
  8
Pel_Frame_Outside
100
AcDbPolyline
 90
        4
 70
     1
 43
0.0
 10
0.0
 20
0.0
 10
21.0
 20
0.0
 10
21.0
 20
47.0
 10
0.0
 20
47.0
  0
LWPOLYLINE
  5
28F02
330
28F00
100
AcDbEntity
  8
Pel_Sash_Outside
100
AcDbPolyline
 90
        4
 70
     1
 43
0.0
 10
1.625
 20
45.375
 10
19.375
 20
45.375
 10
19.375
 20
1.625
 10
1.625
 20
1.625
  0
LWPOLYLINE
  5
28F03
330
28F00
100
AcDbEntity
  8
Pel_Sash_Inside
100
AcDbPolyline
 90
        4
 70
     1
 43
0.0
 10
16.375
 20
42.37499999999999
 10
16.375
 20
4.625
 10
4.625
 20
4.625
 10
4.625
 20
42.37499999999999
  0
LWPOLYLINE
  5
28F05
330
28F00
100
AcDbEntity
  8
Pel_Muntin_AS
100
AcDbPolyline
 90
        4
 70
     1
 43
0.0
 10
16.375
 20
16.62432999999998
 10
10.93799999999998
 20
16.62432999999998
 10
10.93799999999998
 20
4.625
 10
16.375
 20
4.625
  0
LWPOLYLINE
  5
28F06
330
28F00
100
AcDbEntity
  8
Pel_Muntin_AS
100
AcDbPolyline
 90
        4
 70
     1
 43
0.0
 10
10.06200000000001
 20
16.62432999999998
 10
4.625
 20
16.62432999999998
 10
4.625
 20
4.625
 10
10.06200000000001
 20
4.625
  0
LWPOLYLINE
  5
28F07
330
28F00
100
AcDbEntity
  8
Pel_Muntin_AS
100
AcDbPolyline
 90
        4
 70
     1
 43
0.0
 10
10.06200000000001
 20
29.49966999999992
 10
4.625
 20
29.49966999999992
 10
4.625
 20
17.50033000000007
 10
10.06200000000001
 20
17.50033000000007
  0
LWPOLYLINE
  5
28F08
330
28F00
100
AcDbEntity
  8
Pel_Muntin_AS
100
AcDbPolyline
 90
        4
 70
     1
 43
0.0
 10
16.375
 20
29.49966999999992
 10
10.93799999999998
 20
29.49966999999992
 10
10.93799999999998
 20
17.50033000000007
 10
16.375
 20
17.50033000000007
  0
LWPOLYLINE
  5
28F09
330
28F00
100
AcDbEntity
  8
Pel_Muntin_AS
100
AcDbPolyline
 90
        4
 70
     1
 43
0.0
 10
16.375
 20
42.37499999999999
 10
10.93799999999998
 20
42.37499999999999
 10
10.93799999999998
 20
30.37567000000001
 10
16.375
 20
30.37567000000001
  0
LWPOLYLINE
  5
28F0A
330
28F00
100
AcDbEntity
  8
Pel_Muntin_AS
100
AcDbPolyline
 90
        4
 70
     1
 43
0.0
 10
10.06200000000001
 20
42.37499999999999
 10
4.625
 20
42.37499999999999
 10
4.625
 20
30.37567000000001
 10
10.06200000000001
 20
30.37567000000001
  0
LWPOLYLINE
  5
29B47
330
28F00
100
AcDbEntity
  8
Pel_Hinging
 48
6.0
100
AcDbPolyline
 90
        5
 70
     0
 43
0.0
 10
1.625
 20
45.375
 10
10.5
 20
1.625
 10
19.375
 20
45.375
 10
1.625
 20
23.5
 10
19.375
 20
1.625
  0
ENDBLK
  5
28F0E
330
28F00
100
AcDbEntity
  8
0
100
AcDbBlockEnd
  0
BLOCK
  5
28F20
330
28F11
100
AcDbEntity
  8
0
100
AcDbBlockBegin
  2
ASPCICM2153T
 70
     0
 10
0.0
 20
0.0
 30
0.0
  3
ASPCICM2153T
  1

  0
LWPOLYLINE
  5
28F12
330
28F11
100
AcDbEntity
  8
Pel_Frame_Outside
100
AcDbPolyline
 90
        4
 70
     1
 43
0.0
 10
0.0
 20
0.0
 10
21.0
 20
0.0
 10
21.0
 20
53.0
 10
0.0
 20
53.0
  0
LWPOLYLINE
  5
28F13
330
28F11
100
AcDbEntity
  8
Pel_Sash_Outside
100
AcDbPolyline
 90
        4
 70
     1
 43
0.0
 10
1.625
 20
51.375
 10
19.375
 20
51.375
 10
19.375
 20
1.625
 10
1.625
 20
1.625
  0
LWPOLYLINE
  5
28F14
330
28F11
100
AcDbEntity
  8
Pel_Sash_Inside
100
AcDbPolyline
 90
        4
 70
     1
 43
0.0
 10
16.375
 20
48.375
 10
16.375
 20
4.625
 10
4.625
 20
4.625
 10
4.625
 20
48.375
  0
LWPOLYLINE
  5
28F16
330
28F11
100
AcDbEntity
  8
Pel_Muntin_AS
100
AcDbPolyline
 90
        4
 70
     1
 43
0.0
 10
16.375
 20
14.90550000000002
 10
10.93799999999998
 20
14.90550000000002
 10
10.93799999999998
 20
4.625
 10
16.375
 20
4.625
  0
LWPOLYLINE
  5
28F17
330
28F11
100
AcDbEntity
  8
Pel_Muntin_AS
100
AcDbPolyline
 90
        4
 70
     1
 43
0.0
 10
10.06200000000001
 20
14.90550000000002
 10
4.625
 20
14.90550000000002
 10
4.625
 20
4.625
 10
10.06200000000001
 20
4.625
  0
LWPOLYLINE
  5
28F18
330
28F11
100
AcDbEntity
  8
Pel_Muntin_AS
100
AcDbPolyline
 90
        4
 70
     1
 43
0.0
 10
10.06200000000001
 20
26.06200000000001
 10
4.625
 20
26.06200000000001
 10
4.625
 20
15.78150000000005
 10
10.06200000000001
 20
15.78150000000005
  0
LWPOLYLINE
  5
28F19
330
28F11
100
AcDbEntity
  8
Pel_Muntin_AS
100
AcDbPolyline
 90
        4
 70
     1
 43
0.0
 10
16.375
 20
26.06200000000001
 10
10.93799999999998
 20
26.06200000000001
 10
10.93799999999998
 20
15.78150000000005
 10
16.375
 20
15.78150000000005
  0
LWPOLYLINE
  5
28F1A
330
28F11
100
AcDbEntity
  8
Pel_Muntin_AS
100
AcDbPolyline
 90
        4
 70
     1
 43
0.0
 10
16.375
 20
48.375
 10
10.93799999999998
 20
48.375
 10
10.93799999999998
 20
38.09450000000004
 10
16.375
 20
38.09450000000004
  0
LWPOLYLINE
  5
28F1B
330
28F11
100
AcDbEntity
  8
Pel_Muntin_AS
100
AcDbPolyline
 90
        4
 70
     1
 43
0.0
 10
10.06200000000001
 20
48.375
 10
4.625
 20
48.375
 10
4.625
 20
38.09450000000004
 10
10.06200000000001
 20
38.09450000000004
  0
LWPOLYLINE
  5
28F1C
330
28F11
100
AcDbEntity
  8
Pel_Muntin_AS
100
AcDbPolyline
 90
        4
 70
     1
 43
0.0
 10
10.06200000000001
 20
37.21849999999995
 10
4.625
 20
37.21849999999995
 10
4.625
 20
26.93799999999999
 10
10.06200000000001
 20
26.93799999999999
  0
LWPOLYLINE
  5
28F1D
330
28F11
100
AcDbEntity
  8
Pel_Muntin_AS
100
AcDbPolyline
 90
        4
 70
     1
 43
0.0
 10
16.375
 20
37.21849999999995
 10
10.93799999999998
 20
37.21849999999995
 10
10.93799999999998
 20
26.93799999999999
 10
16.375
 20
26.93799999999999
  0
LWPOLYLINE
  5
29C4B
330
28F11
100
AcDbEntity
  8
Pel_Hinging
 48
6.0
100
AcDbPolyline
 90
        5
 70
     0
 43
0.0
 10
1.625
 20
51.375
 10
10.5
 20
1.625
 10
19.375
 20
51.375
 10
1.625
 20
26.5
 10
19.375
 20
1.625
  0
ENDBLK
  5
28F21
330
28F11
100
AcDbEntity
  8
0
100
AcDbBlockEnd
  0
BLOCK
  5
28F32
330
28F23
100
AcDbEntity
  8
0
100
AcDbBlockBegin
  2
ASPCICM2159T
 70
     0
 10
0.0
 20
0.0
 30
0.0
  3
ASPCICM2159T
  1

  0
LWPOLYLINE
  5
28F24
330
28F23
100
AcDbEntity
  8
Pel_Frame_Outside
100
AcDbPolyline
 90
        4
 70
     1
 43
0.0
 10
0.0
 20
0.0
 10
21.0
 20
0.0
 10
21.0
 20
59.0
 10
0.0
 20
59.0
  0
LWPOLYLINE
  5
28F25
330
28F23
100
AcDbEntity
  8
Pel_Sash_Outside
100
AcDbPolyline
 90
        4
 70
     1
 43
0.0
 10
1.625
 20
57.375
 10
19.375
 20
57.375
 10
19.375
 20
1.625
 10
1.625
 20
1.625
  0
LWPOLYLINE
  5
28F26
330
28F23
100
AcDbEntity
  8
Pel_Sash_Inside
100
AcDbPolyline
 90
        4
 70
     1
 43
0.0
 10
16.375
 20
54.375
 10
16.375
 20
4.625
 10
4.625
 20
4.625
 10
4.625
 20
54.375
  0
LWPOLYLINE
  5
28F28
330
28F23
100
AcDbEntity
  8
Pel_Muntin_AS
100
AcDbPolyline
 90
        4
 70
     1
 43
0.0
 10
16.375
 20
16.40549999999996
 10
10.93799999999998
 20
16.40549999999996
 10
10.93799999999998
 20
4.625
 10
16.375
 20
4.625
  0
LWPOLYLINE
  5
28F29
330
28F23
100
AcDbEntity
  8
Pel_Muntin_AS
100
AcDbPolyline
 90
        4
 70
     1
 43
0.0
 10
10.06200000000001
 20
16.40549999999996
 10
4.625
 20
16.40549999999996
 10
4.625
 20
4.625
 10
10.06200000000001
 20
4.625
  0
LWPOLYLINE
  5
28F2A
330
28F23
100
AcDbEntity
  8
Pel_Muntin_AS
100
AcDbPolyline
 90
        4
 70
     1
 43
0.0
 10
10.06200000000001
 20
29.06200000000001
 10
4.625
 20
29.06200000000001
 10
4.625
 20
17.28149999999999
 10
10.06200000000001
 20
17.28149999999999
  0
LWPOLYLINE
  5
28F2B
330
28F23
100
AcDbEntity
  8
Pel_Muntin_AS
100
AcDbPolyline
 90
        4
 70
     1
 43
0.0
 10
16.375
 20
29.06200000000001
 10
10.93799999999998
 20
29.06200000000001
 10
10.93799999999998
 20
17.28149999999999
 10
16.375
 20
17.28149999999999
  0
LWPOLYLINE
  5
28F2C
330
28F23
100
AcDbEntity
  8
Pel_Muntin_AS
100
AcDbPolyline
 90
        4
 70
     1
 43
0.0
 10
16.375
 20
54.375
 10
10.93799999999998
 20
54.375
 10
10.93799999999998
 20
42.59449999999998
 10
16.375
 20
42.59449999999998
  0
LWPOLYLINE
  5
28F2D
330
28F23
100
AcDbEntity
  8
Pel_Muntin_AS
100
AcDbPolyline
 90
        4
 70
     1
 43
0.0
 10
10.06200000000001
 20
54.375
 10
4.625
 20
54.375
 10
4.625
 20
42.59449999999998
 10
10.06200000000001
 20
42.59449999999998
  0
LWPOLYLINE
  5
28F2E
330
28F23
100
AcDbEntity
  8
Pel_Muntin_AS
100
AcDbPolyline
 90
        4
 70
     1
 43
0.0
 10
10.06200000000001
 20
41.71849999999994
 10
4.625
 20
41.71849999999994
 10
4.625
 20
29.93799999999999
 10
10.06200000000001
 20
29.93799999999999
  0
LWPOLYLINE
  5
28F2F
330
28F23
100
AcDbEntity
  8
Pel_Muntin_AS
100
AcDbPolyline
 90
        4
 70
     1
 43
0.0
 10
16.375
 20
41.71849999999994
 10
10.93799999999998
 20
41.71849999999994
 10
10.93799999999998
 20
29.93799999999999
 10
16.375
 20
29.93799999999999
  0
LWPOLYLINE
  5
29D07
330
28F23
100
AcDbEntity
  8
Pel_Hinging
 48
6.0
100
AcDbPolyline
 90
        5
 70
     0
 43
0.0
 10
1.625
 20
57.375
 10
10.5
 20
1.625
 10
19.375
 20
57.375
 10
1.625
 20
29.5
 10
19.375
 20
1.625
  0
ENDBLK
  5
28F33
330
28F23
100
AcDbEntity
  8
0
100
AcDbBlockEnd
  0
BLOCK
  5
28F46
330
28F35
100
AcDbEntity
  8
0
100
AcDbBlockBegin
  2
ASPCICM2165T
 70
     0
 10
0.0
 20
0.0
 30
0.0
  3
ASPCICM2165T
  1

  0
LWPOLYLINE
  5
28F36
330
28F35
100
AcDbEntity
  8
Pel_Frame_Outside
100
AcDbPolyline
 90
        4
 70
     1
 43
0.0
 10
0.0
 20
0.0
 10
21.0
 20
0.0
 10
21.0
 20
65.0
 10
0.0
 20
65.0
  0
LWPOLYLINE
  5
28F37
330
28F35
100
AcDbEntity
  8
Pel_Sash_Outside
100
AcDbPolyline
 90
        4
 70
     1
 43
0.0
 10
1.625
 20
63.375
 10
19.375
 20
63.375
 10
19.375
 20
1.625
 10
1.625
 20
1.625
  0
LWPOLYLINE
  5
28F38
330
28F35
100
AcDbEntity
  8
Pel_Sash_Inside
100
AcDbPolyline
 90
        4
 70
     1
 43
0.0
 10
16.375
 20
60.375
 10
16.375
 20
4.625
 10
4.625
 20
4.625
 10
4.625
 20
60.375
  0
LWPOLYLINE
  5
28F3A
330
28F35
100
AcDbEntity
  8
Pel_Muntin_AS
100
AcDbPolyline
 90
        4
 70
     1
 43
0.0
 10
16.375
 20
15.07420000000002
 10
10.93799999999998
 20
15.07420000000002
 10
10.93799999999998
 20
4.625
 10
16.375
 20
4.625
  0
LWPOLYLINE
  5
28F3B
330
28F35
100
AcDbEntity
  8
Pel_Muntin_AS
100
AcDbPolyline
 90
        4
 70
     1
 43
0.0
 10
10.06200000000001
 20
15.07420000000002
 10
4.625
 20
15.07420000000002
 10
4.625
 20
4.625
 10
10.06200000000001
 20
4.625
  0
LWPOLYLINE
  5
28F3C
330
28F35
100
AcDbEntity
  8
Pel_Muntin_AS
100
AcDbPolyline
 90
        4
 70
     1
 43
0.0
 10
10.06200000000001
 20
26.39940000000001
 10
4.625
 20
26.39940000000001
 10
4.625
 20
15.95020000000005
 10
10.06200000000001
 20
15.95020000000005
  0
LWPOLYLINE
  5
28F3D
330
28F35
100
AcDbEntity
  8
Pel_Muntin_AS
100
AcDbPolyline
 90
        4
 70
     1
 43
0.0
 10
16.375
 20
26.39940000000001
 10
10.93799999999998
 20
26.39940000000001
 10
10.93799999999998
 20
15.95020000000005
 10
16.375
 20
15.95020000000005
  0
LWPOLYLINE
  5
28F3E
330
28F35
100
AcDbEntity
  8
Pel_Muntin_AS
100
AcDbPolyline
 90
        4
 70
     1
 43
0.0
 10
16.375
 20
60.375
 10
10.93799999999998
 20
60.375
 10
10.93799999999998
 20
49.92579999999998
 10
16.375
 20
49.92579999999998
  0
LWPOLYLINE
  5
28F3F
330
28F35
100
AcDbEntity
  8
Pel_Muntin_AS
100
AcDbPolyline
 90
        4
 70
     1
 43
0.0
 10
10.06200000000001
 20
60.375
 10
4.625
 20
60.375
 10
4.625
 20
49.92579999999998
 10
10.06200000000001
 20
49.92579999999998
  0
LWPOLYLINE
  5
28F40
330
28F35
100
AcDbEntity
  8
Pel_Muntin_AS
100
AcDbPolyline
 90
        4
 70
     1
 43
0.0
 10
10.06200000000001
 20
37.72460000000001
 10
4.625
 20
37.72460000000001
 10
4.625
 20
27.27539999999999
 10
10.06200000000001
 20
27.27539999999999
  0
LWPOLYLINE
  5
28F41
330
28F35
100
AcDbEntity
  8
Pel_Muntin_AS
100
AcDbPolyline
 90
        4
 70
     1
 43
0.0
 10
16.375
 20
37.72460000000001
 10
10.93799999999998
 20
37.72460000000001
 10
10.93799999999998
 20
27.27539999999999
 10
16.375
 20
27.27539999999999
  0
LWPOLYLINE
  5
28F42
330
28F35
100
AcDbEntity
  8
Pel_Muntin_AS
100
AcDbPolyline
 90
        4
 70
     1
 43
0.0
 10
10.06200000000001
 20
49.04980000000001
 10
4.625
 20
49.04980000000001
 10
4.625
 20
38.60059999999999
 10
10.06200000000001
 20
38.60059999999999
  0
LWPOLYLINE
  5
28F43
330
28F35
100
AcDbEntity
  8
Pel_Muntin_AS
100
AcDbPolyline
 90
        4
 70
     1
 43
0.0
 10
16.375
 20
49.04980000000001
 10
10.93799999999998
 20
49.04980000000001
 10
10.93799999999998
 20
38.60059999999999
 10
16.375
 20
38.60059999999999
  0
LWPOLYLINE
  5
29D5D
330
28F35
100
AcDbEntity
  8
Pel_Hinging
 48
6.0
100
AcDbPolyline
 90
        5
 70
     0
 43
0.0
 10
1.625
 20
63.375
 10
10.5
 20
1.625
 10
19.375
 20
63.375
 10
1.625
 20
32.5
 10
19.375
 20
1.625
  0
ENDBLK
  5
28F47
330
28F35
100
AcDbEntity
  8
0
100
AcDbBlockEnd
  0
BLOCK
  5
28F56
330
28F49
100
AcDbEntity
  8
0
100
AcDbBlockBegin
  2
ASPCICM2335T
 70
     0
 10
0.0
 20
0.0
 30
0.0
  3
ASPCICM2335T
  1

  0
LWPOLYLINE
  5
28F4A
330
28F49
100
AcDbEntity
  8
Pel_Frame_Outside
100
AcDbPolyline
 90
        4
 70
     1
 43
0.0
 10
0.0
 20
0.0
 10
23.0
 20
0.0
 10
23.0
 20
35.0
 10
0.0
 20
35.0
  0
LWPOLYLINE
  5
28F4B
330
28F49
100
AcDbEntity
  8
Pel_Sash_Outside
100
AcDbPolyline
 90
        4
 70
     1
 43
0.0
 10
1.625
 20
33.375
 10
21.375
 20
33.375
 10
21.375
 20
1.625
 10
1.625
 20
1.625
  0
LWPOLYLINE
  5
28F4C
330
28F49
100
AcDbEntity
  8
Pel_Sash_Inside
100
AcDbPolyline
 90
        4
 70
     1
 43
0.0
 10
18.375
 20
30.375
 10
18.375
 20
4.625
 10
4.625
 20
4.625
 10
4.625
 20
30.375
  0
LWPOLYLINE
  5
28F4E
330
28F49
100
AcDbEntity
  8
Pel_Muntin_AS
100
AcDbPolyline
 90
        4
 70
     1
 43
0.0
 10
18.375
 20
12.62432999999999
 10
11.93799999999999
 20
12.62432999999999
 10
11.93799999999999
 20
4.625
 10
18.375
 20
4.625
  0
LWPOLYLINE
  5
28F4F
330
28F49
100
AcDbEntity
  8
Pel_Muntin_AS
100
AcDbPolyline
 90
        4
 70
     1
 43
0.0
 10
11.06200000000001
 20
12.62432999999999
 10
4.625
 20
12.62432999999999
 10
4.625
 20
4.625
 10
11.06200000000001
 20
4.625
  0
LWPOLYLINE
  5
28F50
330
28F49
100
AcDbEntity
  8
Pel_Muntin_AS
100
AcDbPolyline
 90
        4
 70
     1
 43
0.0
 10
18.375
 20
21.49965999999995
 10
11.93799999999999
 20
21.49965999999995
 10
11.93799999999999
 20
13.50032999999996
 10
18.375
 20
13.50032999999996
  0
LWPOLYLINE
  5
28F51
330
28F49
100
AcDbEntity
  8
Pel_Muntin_AS
100
AcDbPolyline
 90
        4
 70
     1
 43
0.0
 10
11.06200000000001
 20
21.49965999999995
 10
4.625
 20
21.49965999999995
 10
4.625
 20
13.50032999999996
 10
11.06200000000001
 20
13.50032999999996
  0
LWPOLYLINE
  5
28F52
330
28F49
100
AcDbEntity
  8
Pel_Muntin_AS
100
AcDbPolyline
 90
        4
 70
     1
 43
0.0
 10
18.375
 20
30.375
 10
11.93799999999999
 20
30.375
 10
11.93799999999999
 20
22.37567000000002
 10
18.375
 20
22.37567000000002
  0
LWPOLYLINE
  5
28F53
330
28F49
100
AcDbEntity
  8
Pel_Muntin_AS
100
AcDbPolyline
 90
        4
 70
     1
 43
0.0
 10
11.06200000000001
 20
30.375
 10
4.625
 20
30.375
 10
4.625
 20
22.37567000000002
 10
11.06200000000001
 20
22.37567000000002
  0
LWPOLYLINE
  5
29A12
330
28F49
100
AcDbEntity
  8
Pel_Hinging
 48
6.0
100
AcDbPolyline
 90
        5
 70
     0
 43
0.0
 10
1.625
 20
33.375
 10
11.5
 20
1.625
 10
21.375
 20
33.375
 10
1.625
 20
17.5
 10
21.375
 20
1.625
  0
ENDBLK
  5
28F57
330
28F49
100
AcDbEntity
  8
0
100
AcDbBlockEnd
  0
BLOCK
  5
28F66
330
28F59
100
AcDbEntity
  8
0
100
AcDbBlockBegin
  2
ASPCICM2341T
 70
     0
 10
0.0
 20
0.0
 30
0.0
  3
ASPCICM2341T
  1

  0
LWPOLYLINE
  5
28F5A
330
28F59
100
AcDbEntity
  8
Pel_Frame_Outside
100
AcDbPolyline
 90
        4
 70
     1
 43
0.0
 10
0.0
 20
0.0
 10
23.0
 20
0.0
 10
23.0
 20
41.0
 10
0.0
 20
41.0
  0
LWPOLYLINE
  5
28F5B
330
28F59
100
AcDbEntity
  8
Pel_Sash_Outside
100
AcDbPolyline
 90
        4
 70
     1
 43
0.0
 10
1.625
 20
39.375
 10
21.375
 20
39.375
 10
21.375
 20
1.625
 10
1.625
 20
1.625
  0
LWPOLYLINE
  5
28F5C
330
28F59
100
AcDbEntity
  8
Pel_Sash_Inside
100
AcDbPolyline
 90
        4
 70
     1
 43
0.0
 10
18.375
 20
36.375
 10
18.375
 20
4.625
 10
4.625
 20
4.625
 10
4.625
 20
36.375
  0
LWPOLYLINE
  5
28F5E
330
28F59
100
AcDbEntity
  8
Pel_Muntin_AS
100
AcDbPolyline
 90
        4
 70
     1
 43
0.0
 10
18.375
 20
14.62432999999998
 10
11.93799999999999
 20
14.62432999999998
 10
11.93799999999999
 20
4.625
 10
18.375
 20
4.625
  0
LWPOLYLINE
  5
28F5F
330
28F59
100
AcDbEntity
  8
Pel_Muntin_AS
100
AcDbPolyline
 90
        4
 70
     1
 43
0.0
 10
11.06200000000001
 20
14.62432999999998
 10
4.625
 20
14.62432999999998
 10
4.625
 20
4.625
 10
11.06200000000001
 20
4.625
  0
LWPOLYLINE
  5
28F60
330
28F59
100
AcDbEntity
  8
Pel_Muntin_AS
100
AcDbPolyline
 90
        4
 70
     1
 43
0.0
 10
18.375
 20
25.49965999999995
 10
11.93799999999999
 20
25.49965999999995
 10
11.93799999999999
 20
15.50032999999996
 10
18.375
 20
15.50032999999996
  0
LWPOLYLINE
  5
28F61
330
28F59
100
AcDbEntity
  8
Pel_Muntin_AS
100
AcDbPolyline
 90
        4
 70
     1
 43
0.0
 10
11.06200000000001
 20
25.49965999999995
 10
4.625
 20
25.49965999999995
 10
4.625
 20
15.50032999999996
 10
11.06200000000001
 20
15.50032999999996
  0
LWPOLYLINE
  5
28F62
330
28F59
100
AcDbEntity
  8
Pel_Muntin_AS
100
AcDbPolyline
 90
        4
 70
     1
 43
0.0
 10
18.375
 20
36.375
 10
11.93799999999999
 20
36.375
 10
11.93799999999999
 20
26.37567000000001
 10
18.375
 20
26.37567000000001
  0
LWPOLYLINE
  5
28F63
330
28F59
100
AcDbEntity
  8
Pel_Muntin_AS
100
AcDbPolyline
 90
        4
 70
     1
 43
0.0
 10
11.06200000000001
 20
36.375
 10
4.625
 20
36.375
 10
4.625
 20
26.37567000000001
 10
11.06200000000001
 20
26.37567000000001
  0
LWPOLYLINE
  5
29AD2
330
28F59
100
AcDbEntity
  8
Pel_Hinging
 48
6.0
100
AcDbPolyline
 90
        5
 70
     0
 43
0.0
 10
1.625
 20
39.375
 10
11.5
 20
1.625
 10
21.375
 20
39.375
 10
1.625
 20
20.5
 10
21.375
 20
1.625
  0
ENDBLK
  5
28F67
330
28F59
100
AcDbEntity
  8
0
100
AcDbBlockEnd
  0
BLOCK
  5
28F78
330
28F69
100
AcDbEntity
  8
0
100
AcDbBlockBegin
  2
ASPCICM2353T
 70
     0
 10
0.0
 20
0.0
 30
0.0
  3
ASPCICM2353T
  1

  0
LWPOLYLINE
  5
28F6A
330
28F69
100
AcDbEntity
  8
Pel_Frame_Outside
100
AcDbPolyline
 90
        4
 70
     1
 43
0.0
 10
0.0
 20
0.0
 10
23.0
 20
0.0
 10
23.0
 20
53.0
 10
0.0
 20
53.0
  0
LWPOLYLINE
  5
28F6B
330
28F69
100
AcDbEntity
  8
Pel_Sash_Outside
100
AcDbPolyline
 90
        4
 70
     1
 43
0.0
 10
1.625
 20
51.375
 10
21.375
 20
51.375
 10
21.375
 20
1.625
 10
1.625
 20
1.625
  0
LWPOLYLINE
  5
28F6C
330
28F69
100
AcDbEntity
  8
Pel_Sash_Inside
100
AcDbPolyline
 90
        4
 70
     1
 43
0.0
 10
18.375
 20
48.375
 10
18.375
 20
4.625
 10
4.625
 20
4.625
 10
4.625
 20
48.375
  0
LWPOLYLINE
  5
28F6E
330
28F69
100
AcDbEntity
  8
Pel_Muntin_AS
100
AcDbPolyline
 90
        4
 70
     1
 43
0.0
 10
18.375
 20
14.90550000000002
 10
11.93799999999999
 20
14.90550000000002
 10
11.93799999999999
 20
4.625
 10
18.375
 20
4.625
  0
LWPOLYLINE
  5
28F6F
330
28F69
100
AcDbEntity
  8
Pel_Muntin_AS
100
AcDbPolyline
 90
        4
 70
     1
 43
0.0
 10
11.06200000000001
 20
14.90550000000002
 10
4.625
 20
14.90550000000002
 10
4.625
 20
4.625
 10
11.06200000000001
 20
4.625
  0
LWPOLYLINE
  5
28F70
330
28F69
100
AcDbEntity
  8
Pel_Muntin_AS
100
AcDbPolyline
 90
        4
 70
     1
 43
0.0
 10
18.375
 20
26.06200000000001
 10
11.93799999999999
 20
26.06200000000001
 10
11.93799999999999
 20
15.78149999999999
 10
18.375
 20
15.78149999999999
  0
LWPOLYLINE
  5
28F71
330
28F69
100
AcDbEntity
  8
Pel_Muntin_AS
100
AcDbPolyline
 90
        4
 70
     1
 43
0.0
 10
11.06200000000001
 20
26.06200000000001
 10
4.625
 20
26.06200000000001
 10
4.625
 20
15.78149999999999
 10
11.06200000000001
 20
15.78149999999999
  0
LWPOLYLINE
  5
28F72
330
28F69
100
AcDbEntity
  8
Pel_Muntin_AS
100
AcDbPolyline
 90
        4
 70
     1
 43
0.0
 10
18.375
 20
48.375
 10
11.93799999999999
 20
48.375
 10
11.93799999999999
 20
38.09450000000004
 10
18.375
 20
38.09450000000004
  0
LWPOLYLINE
  5
28F73
330
28F69
100
AcDbEntity
  8
Pel_Muntin_AS
100
AcDbPolyline
 90
        4
 70
     1
 43
0.0
 10
11.06200000000001
 20
48.375
 10
4.625
 20
48.375
 10
4.625
 20
38.09450000000004
 10
11.06200000000001
 20
38.09450000000004
  0
LWPOLYLINE
  5
28F74
330
28F69
100
AcDbEntity
  8
Pel_Muntin_AS
100
AcDbPolyline
 90
        4
 70
     1
 43
0.0
 10
18.375
 20
37.21849999999995
 10
11.93799999999999
 20
37.21849999999995
 10
11.93799999999999
 20
26.93799999999999
 10
18.375
 20
26.93799999999999
  0
LWPOLYLINE
  5
28F75
330
28F69
100
AcDbEntity
  8
Pel_Muntin_AS
100
AcDbPolyline
 90
        4
 70
     1
 43
0.0
 10
11.06200000000001
 20
37.21849999999995
 10
4.625
 20
37.21849999999995
 10
4.625
 20
26.93799999999999
 10
11.06200000000001
 20
26.93799999999999
  0
LWPOLYLINE
  5
29C31
330
28F69
100
AcDbEntity
  8
Pel_Hinging
 48
6.0
100
AcDbPolyline
 90
        5
 70
     0
 43
0.0
 10
1.625
 20
51.375
 10
11.5
 20
1.625
 10
21.375
 20
51.375
 10
1.625
 20
26.5
 10
21.375
 20
1.625
  0
ENDBLK
  5
28F79
330
28F69
100
AcDbEntity
  8
0
100
AcDbBlockEnd
  0
BLOCK
  5
28F88
330
28F7B
100
AcDbEntity
  8
0
100
AcDbBlockBegin
  2
ASPCICM2347T
 70
     0
 10
0.0
 20
0.0
 30
0.0
  3
ASPCICM2347T
  1

  0
LWPOLYLINE
  5
28F7C
330
28F7B
100
AcDbEntity
  8
Pel_Frame_Outside
100
AcDbPolyline
 90
        4
 70
     1
 43
0.0
 10
0.0
 20
0.0
 10
23.0
 20
0.0
 10
23.0
 20
47.0
 10
0.0
 20
47.0
  0
LWPOLYLINE
  5
28F7D
330
28F7B
100
AcDbEntity
  8
Pel_Sash_Outside
100
AcDbPolyline
 90
        4
 70
     1
 43
0.0
 10
1.625
 20
45.375
 10
21.375
 20
45.375
 10
21.375
 20
1.625
 10
1.625
 20
1.625
  0
LWPOLYLINE
  5
28F7E
330
28F7B
100
AcDbEntity
  8
Pel_Sash_Inside
100
AcDbPolyline
 90
        4
 70
     1
 43
0.0
 10
18.375
 20
42.37499999999999
 10
18.375
 20
4.625
 10
4.625
 20
4.625
 10
4.625
 20
42.37499999999999
  0
LWPOLYLINE
  5
28F80
330
28F7B
100
AcDbEntity
  8
Pel_Muntin_AS
100
AcDbPolyline
 90
        4
 70
     1
 43
0.0
 10
18.375
 20
16.62432999999998
 10
11.93799999999999
 20
16.62432999999998
 10
11.93799999999999
 20
4.625
 10
18.375
 20
4.625
  0
LWPOLYLINE
  5
28F81
330
28F7B
100
AcDbEntity
  8
Pel_Muntin_AS
100
AcDbPolyline
 90
        4
 70
     1
 43
0.0
 10
11.06200000000001
 20
16.62432999999998
 10
4.625
 20
16.62432999999998
 10
4.625
 20
4.625
 10
11.06200000000001
 20
4.625
  0
LWPOLYLINE
  5
28F82
330
28F7B
100
AcDbEntity
  8
Pel_Muntin_AS
100
AcDbPolyline
 90
        4
 70
     1
 43
0.0
 10
18.375
 20
29.49965999999995
 10
11.93799999999999
 20
29.49965999999995
 10
11.93799999999999
 20
17.50032999999996
 10
18.375
 20
17.50032999999996
  0
LWPOLYLINE
  5
28F83
330
28F7B
100
AcDbEntity
  8
Pel_Muntin_AS
100
AcDbPolyline
 90
        4
 70
     1
 43
0.0
 10
11.06200000000001
 20
29.49965999999995
 10
4.625
 20
29.49965999999995
 10
4.625
 20
17.50032999999996
 10
11.06200000000001
 20
17.50032999999996
  0
LWPOLYLINE
  5
28F84
330
28F7B
100
AcDbEntity
  8
Pel_Muntin_AS
100
AcDbPolyline
 90
        4
 70
     1
 43
0.0
 10
18.375
 20
42.37499999999999
 10
11.93799999999999
 20
42.37499999999999
 10
11.93799999999999
 20
30.37567000000001
 10
18.375
 20
30.37567000000001
  0
LWPOLYLINE
  5
28F85
330
28F7B
100
AcDbEntity
  8
Pel_Muntin_AS
100
AcDbPolyline
 90
        4
 70
     1
 43
0.0
 10
11.06200000000001
 20
42.37499999999999
 10
4.625
 20
42.37499999999999
 10
4.625
 20
30.37567000000001
 10
11.06200000000001
 20
30.37567000000001
  0
LWPOLYLINE
  5
29B5D
330
28F7B
100
AcDbEntity
  8
Pel_Hinging
 48
6.0
100
AcDbPolyline
 90
        5
 70
     0
 43
0.0
 10
1.625
 20
45.375
 10
11.5
 20
1.625
 10
21.375
 20
45.375
 10
1.625
 20
23.5
 10
21.375
 20
1.625
  0
ENDBLK
  5
28F89
330
28F7B
100
AcDbEntity
  8
0
100
AcDbBlockEnd
  0
BLOCK
  5
28F9A
330
28F8B
100
AcDbEntity
  8
0
100
AcDbBlockBegin
  2
ASPCICM2359T
 70
     0
 10
0.0
 20
0.0
 30
0.0
  3
ASPCICM2359T
  1

  0
LWPOLYLINE
  5
28F8C
330
28F8B
100
AcDbEntity
  8
Pel_Frame_Outside
100
AcDbPolyline
 90
        4
 70
     1
 43
0.0
 10
0.0
 20
0.0
 10
23.0
 20
0.0
 10
23.0
 20
59.0
 10
0.0
 20
59.0
  0
LWPOLYLINE
  5
28F8D
330
28F8B
100
AcDbEntity
  8
Pel_Sash_Outside
100
AcDbPolyline
 90
        4
 70
     1
 43
0.0
 10
1.625
 20
57.375
 10
21.375
 20
57.375
 10
21.375
 20
1.625
 10
1.625
 20
1.625
  0
LWPOLYLINE
  5
28F8E
330
28F8B
100
AcDbEntity
  8
Pel_Sash_Inside
100
AcDbPolyline
 90
        4
 70
     1
 43
0.0
 10
18.375
 20
54.375
 10
18.375
 20
4.625
 10
4.625
 20
4.625
 10
4.625
 20
54.375
  0
LWPOLYLINE
  5
28F90
330
28F8B
100
AcDbEntity
  8
Pel_Muntin_AS
100
AcDbPolyline
 90
        4
 70
     1
 43
0.0
 10
18.375
 20
16.40550000000002
 10
11.93799999999999
 20
16.40550000000002
 10
11.93799999999999
 20
4.625
 10
18.375
 20
4.625
  0
LWPOLYLINE
  5
28F91
330
28F8B
100
AcDbEntity
  8
Pel_Muntin_AS
100
AcDbPolyline
 90
        4
 70
     1
 43
0.0
 10
11.06200000000001
 20
16.40550000000002
 10
4.625
 20
16.40550000000002
 10
4.625
 20
4.625
 10
11.06200000000001
 20
4.625
  0
LWPOLYLINE
  5
28F92
330
28F8B
100
AcDbEntity
  8
Pel_Muntin_AS
100
AcDbPolyline
 90
        4
 70
     1
 43
0.0
 10
18.375
 20
29.06200000000001
 10
11.93799999999999
 20
29.06200000000001
 10
11.93799999999999
 20
17.28149999999999
 10
18.375
 20
17.28149999999999
  0
LWPOLYLINE
  5
28F93
330
28F8B
100
AcDbEntity
  8
Pel_Muntin_AS
100
AcDbPolyline
 90
        4
 70
     1
 43
0.0
 10
11.06200000000001
 20
29.06200000000001
 10
4.625
 20
29.06200000000001
 10
4.625
 20
17.28149999999999
 10
11.06200000000001
 20
17.28149999999999
  0
LWPOLYLINE
  5
28F94
330
28F8B
100
AcDbEntity
  8
Pel_Muntin_AS
100
AcDbPolyline
 90
        4
 70
     1
 43
0.0
 10
18.375
 20
54.375
 10
11.93799999999999
 20
54.375
 10
11.93799999999999
 20
42.59449999999998
 10
18.375
 20
42.59449999999998
  0
LWPOLYLINE
  5
28F95
330
28F8B
100
AcDbEntity
  8
Pel_Muntin_AS
100
AcDbPolyline
 90
        4
 70
     1
 43
0.0
 10
11.06200000000001
 20
54.375
 10
4.625
 20
54.375
 10
4.625
 20
42.59449999999998
 10
11.06200000000001
 20
42.59449999999998
  0
LWPOLYLINE
  5
28F96
330
28F8B
100
AcDbEntity
  8
Pel_Muntin_AS
100
AcDbPolyline
 90
        4
 70
     1
 43
0.0
 10
18.375
 20
41.7185
 10
11.93799999999999
 20
41.7185
 10
11.93799999999999
 20
29.93799999999999
 10
18.375
 20
29.93799999999999
  0
LWPOLYLINE
  5
28F97
330
28F8B
100
AcDbEntity
  8
Pel_Muntin_AS
100
AcDbPolyline
 90
        4
 70
     1
 43
0.0
 10
11.06200000000001
 20
41.7185
 10
4.625
 20
41.7185
 10
4.625
 20
29.93799999999999
 10
11.06200000000001
 20
29.93799999999999
  0
LWPOLYLINE
  5
29CED
330
28F8B
100
AcDbEntity
  8
Pel_Hinging
 48
6.0
100
AcDbPolyline
 90
        5
 70
     0
 43
0.0
 10
1.625
 20
57.375
 10
11.5
 20
1.625
 10
21.375
 20
57.375
 10
1.625
 20
29.5
 10
21.375
 20
1.625
  0
ENDBLK
  5
28F9B
330
28F8B
100
AcDbEntity
  8
0
100
AcDbBlockEnd
  0
BLOCK
  5
28FAE
330
28F9D
100
AcDbEntity
  8
0
100
AcDbBlockBegin
  2
ASPCICM2365T
 70
     0
 10
0.0
 20
0.0
 30
0.0
  3
ASPCICM2365T
  1

  0
LWPOLYLINE
  5
28F9E
330
28F9D
100
AcDbEntity
  8
Pel_Frame_Outside
100
AcDbPolyline
 90
        4
 70
     1
 43
0.0
 10
0.0
 20
0.0
 10
23.0
 20
0.0
 10
23.0
 20
65.0
 10
0.0
 20
65.0
  0
LWPOLYLINE
  5
28F9F
330
28F9D
100
AcDbEntity
  8
Pel_Sash_Outside
100
AcDbPolyline
 90
        4
 70
     1
 43
0.0
 10
1.625
 20
63.375
 10
21.375
 20
63.375
 10
21.375
 20
1.625
 10
1.625
 20
1.625
  0
LWPOLYLINE
  5
28FA0
330
28F9D
100
AcDbEntity
  8
Pel_Sash_Inside
100
AcDbPolyline
 90
        4
 70
     1
 43
0.0
 10
18.375
 20
60.375
 10
18.375
 20
4.625
 10
4.625
 20
4.625
 10
4.625
 20
60.375
  0
LWPOLYLINE
  5
28FA2
330
28F9D
100
AcDbEntity
  8
Pel_Muntin_AS
100
AcDbPolyline
 90
        4
 70
     1
 43
0.0
 10
18.375
 20
15.07420000000002
 10
11.93799999999999
 20
15.07420000000002
 10
11.93799999999999
 20
4.625
 10
18.375
 20
4.625
  0
LWPOLYLINE
  5
28FA3
330
28F9D
100
AcDbEntity
  8
Pel_Muntin_AS
100
AcDbPolyline
 90
        4
 70
     1
 43
0.0
 10
11.06200000000001
 20
15.07420000000002
 10
4.625
 20
15.07420000000002
 10
4.625
 20
4.625
 10
11.06200000000001
 20
4.625
  0
LWPOLYLINE
  5
28FA4
330
28F9D
100
AcDbEntity
  8
Pel_Muntin_AS
100
AcDbPolyline
 90
        4
 70
     1
 43
0.0
 10
18.375
 20
26.39940000000001
 10
11.93799999999999
 20
26.39940000000001
 10
11.93799999999999
 20
15.95019999999999
 10
18.375
 20
15.95019999999999
  0
LWPOLYLINE
  5
28FA5
330
28F9D
100
AcDbEntity
  8
Pel_Muntin_AS
100
AcDbPolyline
 90
        4
 70
     1
 43
0.0
 10
11.06200000000001
 20
26.39940000000001
 10
4.625
 20
26.39940000000001
 10
4.625
 20
15.95019999999999
 10
11.06200000000001
 20
15.95019999999999
  0
LWPOLYLINE
  5
28FA6
330
28F9D
100
AcDbEntity
  8
Pel_Muntin_AS
100
AcDbPolyline
 90
        4
 70
     1
 43
0.0
 10
18.375
 20
37.72460000000001
 10
11.93799999999999
 20
37.72460000000001
 10
11.93799999999999
 20
27.27539999999999
 10
18.375
 20
27.27539999999999
  0
LWPOLYLINE
  5
28FA7
330
28F9D
100
AcDbEntity
  8
Pel_Muntin_AS
100
AcDbPolyline
 90
        4
 70
     1
 43
0.0
 10
11.06200000000001
 20
37.72460000000001
 10
4.625
 20
37.72460000000001
 10
4.625
 20
27.27539999999999
 10
11.06200000000001
 20
27.27539999999999
  0
LWPOLYLINE
  5
28FA8
330
28F9D
100
AcDbEntity
  8
Pel_Muntin_AS
100
AcDbPolyline
 90
        4
 70
     1
 43
0.0
 10
18.375
 20
49.04980000000001
 10
11.93799999999999
 20
49.04980000000001
 10
11.93799999999999
 20
38.60059999999999
 10
18.375
 20
38.60059999999999
  0
LWPOLYLINE
  5
28FA9
330
28F9D
100
AcDbEntity
  8
Pel_Muntin_AS
100
AcDbPolyline
 90
        4
 70
     1
 43
0.0
 10
11.06200000000001
 20
49.04980000000001
 10
4.625
 20
49.04980000000001
 10
4.625
 20
38.60059999999999
 10
11.06200000000001
 20
38.60059999999999
  0
LWPOLYLINE
  5
28FAA
330
28F9D
100
AcDbEntity
  8
Pel_Muntin_AS
100
AcDbPolyline
 90
        4
 70
     1
 43
0.0
 10
18.375
 20
60.375
 10
11.93799999999999
 20
60.375
 10
11.93799999999999
 20
49.92579999999998
 10
18.375
 20
49.92579999999998
  0
LWPOLYLINE
  5
28FAB
330
28F9D
100
AcDbEntity
  8
Pel_Muntin_AS
100
AcDbPolyline
 90
        4
 70
     1
 43
0.0
 10
11.06200000000001
 20
60.375
 10
4.625
 20
60.375
 10
4.625
 20
49.92579999999998
 10
11.06200000000001
 20
49.92579999999998
  0
LWPOLYLINE
  5
29D7B
330
28F9D
100
AcDbEntity
  8
Pel_Hinging
 48
6.0
100
AcDbPolyline
 90
        5
 70
     0
 43
0.0
 10
1.625
 20
63.375
 10
11.5
 20
1.625
 10
21.375
 20
63.375
 10
1.625
 20
32.5
 10
21.375
 20
1.625
  0
ENDBLK
  5
28FAF
330
28F9D
100
AcDbEntity
  8
0
100
AcDbBlockEnd
  0
BLOCK
  5
28FBE
330
28FB1
100
AcDbEntity
  8
0
100
AcDbBlockBegin
  2
ASPCICM2535T
 70
     0
 10
0.0
 20
0.0
 30
0.0
  3
ASPCICM2535T
  1

  0
LWPOLYLINE
  5
28FB2
330
28FB1
100
AcDbEntity
  8
Pel_Frame_Outside
100
AcDbPolyline
 90
        4
 70
     1
 43
0.0
 10
0.0
 20
0.0
 10
25.0
 20
0.0
 10
25.0
 20
35.0
 10
0.0
 20
35.0
  0
LWPOLYLINE
  5
28FB3
330
28FB1
100
AcDbEntity
  8
Pel_Sash_Outside
100
AcDbPolyline
 90
        4
 70
     1
 43
0.0
 10
1.625
 20
33.375
 10
23.375
 20
33.375
 10
23.375
 20
1.625
 10
1.625
 20
1.625
  0
LWPOLYLINE
  5
28FB4
330
28FB1
100
AcDbEntity
  8
Pel_Sash_Inside
100
AcDbPolyline
 90
        4
 70
     1
 43
0.0
 10
20.375
 20
30.375
 10
20.375
 20
4.625
 10
4.625
 20
4.625
 10
4.625
 20
30.375
  0
LWPOLYLINE
  5
28FB6
330
28FB1
100
AcDbEntity
  8
Pel_Muntin_AS
100
AcDbPolyline
 90
        4
 70
     1
 43
0.0
 10
20.375
 20
12.62432999999999
 10
12.93799999999999
 20
12.62432999999999
 10
12.93799999999999
 20
4.625
 10
20.375
 20
4.625
  0
LWPOLYLINE
  5
28FB7
330
28FB1
100
AcDbEntity
  8
Pel_Muntin_AS
100
AcDbPolyline
 90
        4
 70
     1
 43
0.0
 10
12.06200000000001
 20
12.62432999999999
 10
4.625
 20
12.62432999999999
 10
4.625
 20
4.625
 10
12.06200000000001
 20
4.625
  0
LWPOLYLINE
  5
28FB8
330
28FB1
100
AcDbEntity
  8
Pel_Muntin_AS
100
AcDbPolyline
 90
        4
 70
     1
 43
0.0
 10
20.375
 20
21.49967000000004
 10
12.93799999999999
 20
21.49967000000004
 10
12.93799999999999
 20
13.50032999999996
 10
20.375
 20
13.50032999999996
  0
LWPOLYLINE
  5
28FB9
330
28FB1
100
AcDbEntity
  8
Pel_Muntin_AS
100
AcDbPolyline
 90
        4
 70
     1
 43
0.0
 10
12.06200000000001
 20
21.49967000000004
 10
4.625
 20
21.49967000000004
 10
4.625
 20
13.50032999999996
 10
12.06200000000001
 20
13.50032999999996
  0
LWPOLYLINE
  5
28FBA
330
28FB1
100
AcDbEntity
  8
Pel_Muntin_AS
100
AcDbPolyline
 90
        4
 70
     1
 43
0.0
 10
20.375
 20
30.375
 10
12.93799999999999
 20
30.375
 10
12.93799999999999
 20
22.37567000000002
 10
20.375
 20
22.37567000000002
  0
LWPOLYLINE
  5
28FBB
330
28FB1
100
AcDbEntity
  8
Pel_Muntin_AS
100
AcDbPolyline
 90
        4
 70
     1
 43
0.0
 10
12.06200000000001
 20
30.375
 10
4.625
 20
30.375
 10
4.625
 20
22.37567000000002
 10
12.06200000000001
 20
22.37567000000002
  0
LWPOLYLINE
  5
29A28
330
28FB1
100
AcDbEntity
  8
Pel_Hinging
 48
6.0
100
AcDbPolyline
 90
        5
 70
     0
 43
0.0
 10
1.625
 20
33.375
 10
12.5
 20
1.625
 10
23.375
 20
33.375
 10
1.625
 20
17.5
 10
23.375
 20
1.625
  0
ENDBLK
  5
28FBF
330
28FB1
100
AcDbEntity
  8
0
100
AcDbBlockEnd
  0
BLOCK
  5
28FCE
330
28FC1
100
AcDbEntity
  8
0
100
AcDbBlockBegin
  2
ASPCICM2541T
 70
     0
 10
0.0
 20
0.0
 30
0.0
  3
ASPCICM2541T
  1

  0
LWPOLYLINE
  5
28FC2
330
28FC1
100
AcDbEntity
  8
Pel_Frame_Outside
100
AcDbPolyline
 90
        4
 70
     1
 43
0.0
 10
0.0
 20
0.0
 10
25.0
 20
0.0
 10
25.0
 20
41.0
 10
0.0
 20
41.0
  0
LWPOLYLINE
  5
28FC3
330
28FC1
100
AcDbEntity
  8
Pel_Sash_Outside
100
AcDbPolyline
 90
        4
 70
     1
 43
0.0
 10
1.625
 20
39.375
 10
23.375
 20
39.375
 10
23.375
 20
1.625
 10
1.625
 20
1.625
  0
LWPOLYLINE
  5
28FC4
330
28FC1
100
AcDbEntity
  8
Pel_Sash_Inside
100
AcDbPolyline
 90
        4
 70
     1
 43
0.0
 10
20.375
 20
36.375
 10
20.375
 20
4.625
 10
4.625
 20
4.625
 10
4.625
 20
36.375
  0
LWPOLYLINE
  5
28FC6
330
28FC1
100
AcDbEntity
  8
Pel_Muntin_AS
100
AcDbPolyline
 90
        4
 70
     1
 43
0.0
 10
20.375
 20
14.62432999999998
 10
12.93799999999999
 20
14.62432999999998
 10
12.93799999999999
 20
4.625
 10
20.375
 20
4.625
  0
LWPOLYLINE
  5
28FC7
330
28FC1
100
AcDbEntity
  8
Pel_Muntin_AS
100
AcDbPolyline
 90
        4
 70
     1
 43
0.0
 10
12.06200000000001
 20
14.62432999999998
 10
4.625
 20
14.62432999999998
 10
4.625
 20
4.625
 10
12.06200000000001
 20
4.625
  0
LWPOLYLINE
  5
28FC8
330
28FC1
100
AcDbEntity
  8
Pel_Muntin_AS
100
AcDbPolyline
 90
        4
 70
     1
 43
0.0
 10
20.375
 20
25.49967000000004
 10
12.93799999999999
 20
25.49967000000004
 10
12.93799999999999
 20
15.50032999999996
 10
20.375
 20
15.50032999999996
  0
LWPOLYLINE
  5
28FC9
330
28FC1
100
AcDbEntity
  8
Pel_Muntin_AS
100
AcDbPolyline
 90
        4
 70
     1
 43
0.0
 10
12.06200000000001
 20
25.49967000000004
 10
4.625
 20
25.49967000000004
 10
4.625
 20
15.50032999999996
 10
12.06200000000001
 20
15.50032999999996
  0
LWPOLYLINE
  5
28FCA
330
28FC1
100
AcDbEntity
  8
Pel_Muntin_AS
100
AcDbPolyline
 90
        4
 70
     1
 43
0.0
 10
20.375
 20
36.375
 10
12.93799999999999
 20
36.375
 10
12.93799999999999
 20
26.37567000000001
 10
20.375
 20
26.37567000000001
  0
LWPOLYLINE
  5
28FCB
330
28FC1
100
AcDbEntity
  8
Pel_Muntin_AS
100
AcDbPolyline
 90
        4
 70
     1
 43
0.0
 10
12.06200000000001
 20
36.375
 10
4.625
 20
36.375
 10
4.625
 20
26.37567000000001
 10
12.06200000000001
 20
26.37567000000001
  0
LWPOLYLINE
  5
29ABC
330
28FC1
100
AcDbEntity
  8
Pel_Hinging
 48
6.0
100
AcDbPolyline
 90
        5
 70
     0
 43
0.0
 10
1.625
 20
39.375
 10
12.5
 20
1.625
 10
23.375
 20
39.375
 10
1.625
 20
20.5
 10
23.375
 20
1.625
  0
ENDBLK
  5
28FCF
330
28FC1
100
AcDbEntity
  8
0
100
AcDbBlockEnd
  0
BLOCK
  5
28FDE
330
28FD1
100
AcDbEntity
  8
0
100
AcDbBlockBegin
  2
ASPCICM2547T
 70
     0
 10
0.0
 20
0.0
 30
0.0
  3
ASPCICM2547T
  1

  0
LWPOLYLINE
  5
28FD2
330
28FD1
100
AcDbEntity
  8
Pel_Frame_Outside
100
AcDbPolyline
 90
        4
 70
     1
 43
0.0
 10
0.0
 20
0.0
 10
25.0
 20
0.0
 10
25.0
 20
47.0
 10
0.0
 20
47.0
  0
LWPOLYLINE
  5
28FD3
330
28FD1
100
AcDbEntity
  8
Pel_Sash_Outside
100
AcDbPolyline
 90
        4
 70
     1
 43
0.0
 10
1.625
 20
45.375
 10
23.375
 20
45.375
 10
23.375
 20
1.625
 10
1.625
 20
1.625
  0
LWPOLYLINE
  5
28FD4
330
28FD1
100
AcDbEntity
  8
Pel_Sash_Inside
100
AcDbPolyline
 90
        4
 70
     1
 43
0.0
 10
20.375
 20
42.37499999999999
 10
20.375
 20
4.625
 10
4.625
 20
4.625
 10
4.625
 20
42.37499999999999
  0
LWPOLYLINE
  5
28FD6
330
28FD1
100
AcDbEntity
  8
Pel_Muntin_AS
100
AcDbPolyline
 90
        4
 70
     1
 43
0.0
 10
20.375
 20
16.62432999999998
 10
12.93799999999999
 20
16.62432999999998
 10
12.93799999999999
 20
4.625
 10
20.375
 20
4.625
  0
LWPOLYLINE
  5
28FD7
330
28FD1
100
AcDbEntity
  8
Pel_Muntin_AS
100
AcDbPolyline
 90
        4
 70
     1
 43
0.0
 10
12.06200000000001
 20
16.62432999999998
 10
4.625
 20
16.62432999999998
 10
4.625
 20
4.625
 10
12.06200000000001
 20
4.625
  0
LWPOLYLINE
  5
28FD8
330
28FD1
100
AcDbEntity
  8
Pel_Muntin_AS
100
AcDbPolyline
 90
        4
 70
     1
 43
0.0
 10
20.375
 20
29.49967000000004
 10
12.93799999999999
 20
29.49967000000004
 10
12.93799999999999
 20
17.50032999999996
 10
20.375
 20
17.50032999999996
  0
LWPOLYLINE
  5
28FD9
330
28FD1
100
AcDbEntity
  8
Pel_Muntin_AS
100
AcDbPolyline
 90
        4
 70
     1
 43
0.0
 10
12.06200000000001
 20
29.49967000000004
 10
4.625
 20
29.49967000000004
 10
4.625
 20
17.50032999999996
 10
12.06200000000001
 20
17.50032999999996
  0
LWPOLYLINE
  5
28FDA
330
28FD1
100
AcDbEntity
  8
Pel_Muntin_AS
100
AcDbPolyline
 90
        4
 70
     1
 43
0.0
 10
20.375
 20
42.37499999999999
 10
12.93799999999999
 20
42.37499999999999
 10
12.93799999999999
 20
30.37567000000001
 10
20.375
 20
30.37567000000001
  0
LWPOLYLINE
  5
28FDB
330
28FD1
100
AcDbEntity
  8
Pel_Muntin_AS
100
AcDbPolyline
 90
        4
 70
     1
 43
0.0
 10
12.06200000000001
 20
42.37499999999999
 10
4.625
 20
42.37499999999999
 10
4.625
 20
30.37567000000001
 10
12.06200000000001
 20
30.37567000000001
  0
LWPOLYLINE
  5
29B73
330
28FD1
100
AcDbEntity
  8
Pel_Hinging
 48
6.0
100
AcDbPolyline
 90
        5
 70
     0
 43
0.0
 10
1.625
 20
45.375
 10
12.5
 20
1.625
 10
23.375
 20
45.375
 10
1.625
 20
23.5
 10
23.375
 20
1.625
  0
ENDBLK
  5
28FDF
330
28FD1
100
AcDbEntity
  8
0
100
AcDbBlockEnd
  0
BLOCK
  5
28FF0
330
28FE1
100
AcDbEntity
  8
0
100
AcDbBlockBegin
  2
ASPCICM2553T
 70
     0
 10
0.0
 20
0.0
 30
0.0
  3
ASPCICM2553T
  1

  0
LWPOLYLINE
  5
28FE2
330
28FE1
100
AcDbEntity
  8
Pel_Frame_Outside
100
AcDbPolyline
 90
        4
 70
     1
 43
0.0
 10
0.0
 20
0.0
 10
25.0
 20
0.0
 10
25.0
 20
53.0
 10
0.0
 20
53.0
  0
LWPOLYLINE
  5
28FE3
330
28FE1
100
AcDbEntity
  8
Pel_Sash_Outside
100
AcDbPolyline
 90
        4
 70
     1
 43
0.0
 10
1.625
 20
51.375
 10
23.375
 20
51.375
 10
23.375
 20
1.625
 10
1.625
 20
1.625
  0
LWPOLYLINE
  5
28FE4
330
28FE1
100
AcDbEntity
  8
Pel_Sash_Inside
100
AcDbPolyline
 90
        4
 70
     1
 43
0.0
 10
20.375
 20
48.375
 10
20.375
 20
4.625
 10
4.625
 20
4.625
 10
4.625
 20
48.375
  0
LWPOLYLINE
  5
28FE6
330
28FE1
100
AcDbEntity
  8
Pel_Muntin_AS
100
AcDbPolyline
 90
        4
 70
     1
 43
0.0
 10
20.375
 20
14.90550000000002
 10
12.93799999999999
 20
14.90550000000002
 10
12.93799999999999
 20
4.625
 10
20.375
 20
4.625
  0
LWPOLYLINE
  5
28FE7
330
28FE1
100
AcDbEntity
  8
Pel_Muntin_AS
100
AcDbPolyline
 90
        4
 70
     1
 43
0.0
 10
12.06200000000001
 20
14.90550000000002
 10
4.625
 20
14.90550000000002
 10
4.625
 20
4.625
 10
12.06200000000001
 20
4.625
  0
LWPOLYLINE
  5
28FE8
330
28FE1
100
AcDbEntity
  8
Pel_Muntin_AS
100
AcDbPolyline
 90
        4
 70
     1
 43
0.0
 10
20.375
 20
26.06200000000001
 10
12.93799999999999
 20
26.06200000000001
 10
12.93799999999999
 20
15.78149999999999
 10
20.375
 20
15.78149999999999
  0
LWPOLYLINE
  5
28FE9
330
28FE1
100
AcDbEntity
  8
Pel_Muntin_AS
100
AcDbPolyline
 90
        4
 70
     1
 43
0.0
 10
12.06200000000001
 20
26.06200000000001
 10
4.625
 20
26.06200000000001
 10
4.625
 20
15.78149999999999
 10
12.06200000000001
 20
15.78149999999999
  0
LWPOLYLINE
  5
28FEA
330
28FE1
100
AcDbEntity
  8
Pel_Muntin_AS
100
AcDbPolyline
 90
        4
 70
     1
 43
0.0
 10
20.375
 20
48.375
 10
12.93799999999999
 20
48.375
 10
12.93799999999999
 20
38.09450000000004
 10
20.375
 20
38.09450000000004
  0
LWPOLYLINE
  5
28FEB
330
28FE1
100
AcDbEntity
  8
Pel_Muntin_AS
100
AcDbPolyline
 90
        4
 70
     1
 43
0.0
 10
12.06200000000001
 20
48.375
 10
4.625
 20
48.375
 10
4.625
 20
38.09450000000004
 10
12.06200000000001
 20
38.09450000000004
  0
LWPOLYLINE
  5
28FEC
330
28FE1
100
AcDbEntity
  8
Pel_Muntin_AS
100
AcDbPolyline
 90
        4
 70
     1
 43
0.0
 10
20.375
 20
37.21849999999995
 10
12.93799999999999
 20
37.21849999999995
 10
12.93799999999999
 20
26.93799999999999
 10
20.375
 20
26.93799999999999
  0
LWPOLYLINE
  5
28FED
330
28FE1
100
AcDbEntity
  8
Pel_Muntin_AS
100
AcDbPolyline
 90
        4
 70
     1
 43
0.0
 10
12.06200000000001
 20
37.21849999999995
 10
4.625
 20
37.21849999999995
 10
4.625
 20
26.93799999999999
 10
12.06200000000001
 20
26.93799999999999
  0
LWPOLYLINE
  5
29C17
330
28FE1
100
AcDbEntity
  8
Pel_Hinging
 48
6.0
100
AcDbPolyline
 90
        5
 70
     0
 43
0.0
 10
1.625
 20
51.375
 10
12.5
 20
1.625
 10
23.375
 20
51.375
 10
1.625
 20
26.5
 10
23.375
 20
1.625
  0
ENDBLK
  5
28FF1
330
28FE1
100
AcDbEntity
  8
0
100
AcDbBlockEnd
  0
BLOCK
  5
29002
330
28FF3
100
AcDbEntity
  8
0
100
AcDbBlockBegin
  2
ASPCICM2559T
 70
     0
 10
0.0
 20
0.0
 30
0.0
  3
ASPCICM2559T
  1

  0
LWPOLYLINE
  5
28FF4
330
28FF3
100
AcDbEntity
  8
Pel_Frame_Outside
100
AcDbPolyline
 90
        4
 70
     1
 43
0.0
 10
0.0
 20
0.0
 10
25.0
 20
0.0
 10
25.0
 20
59.0
 10
0.0
 20
59.0
  0
LWPOLYLINE
  5
28FF5
330
28FF3
100
AcDbEntity
  8
Pel_Sash_Outside
100
AcDbPolyline
 90
        4
 70
     1
 43
0.0
 10
1.625
 20
57.375
 10
23.375
 20
57.375
 10
23.375
 20
1.625
 10
1.625
 20
1.625
  0
LWPOLYLINE
  5
28FF6
330
28FF3
100
AcDbEntity
  8
Pel_Sash_Inside
100
AcDbPolyline
 90
        4
 70
     1
 43
0.0
 10
20.375
 20
54.375
 10
20.375
 20
4.625
 10
4.625
 20
4.625
 10
4.625
 20
54.375
  0
LWPOLYLINE
  5
28FF8
330
28FF3
100
AcDbEntity
  8
Pel_Muntin_AS
100
AcDbPolyline
 90
        4
 70
     1
 43
0.0
 10
20.375
 20
16.40550000000002
 10
12.93799999999999
 20
16.40550000000002
 10
12.93799999999999
 20
4.625
 10
20.375
 20
4.625
  0
LWPOLYLINE
  5
28FF9
330
28FF3
100
AcDbEntity
  8
Pel_Muntin_AS
100
AcDbPolyline
 90
        4
 70
     1
 43
0.0
 10
12.06200000000001
 20
16.40550000000002
 10
4.625
 20
16.40550000000002
 10
4.625
 20
4.625
 10
12.06200000000001
 20
4.625
  0
LWPOLYLINE
  5
28FFA
330
28FF3
100
AcDbEntity
  8
Pel_Muntin_AS
100
AcDbPolyline
 90
        4
 70
     1
 43
0.0
 10
20.375
 20
29.06200000000001
 10
12.93799999999999
 20
29.06200000000001
 10
12.93799999999999
 20
17.28149999999999
 10
20.375
 20
17.28149999999999
  0
LWPOLYLINE
  5
28FFB
330
28FF3
100
AcDbEntity
  8
Pel_Muntin_AS
100
AcDbPolyline
 90
        4
 70
     1
 43
0.0
 10
12.06200000000001
 20
29.06200000000001
 10
4.625
 20
29.06200000000001
 10
4.625
 20
17.28149999999999
 10
12.06200000000001
 20
17.28149999999999
  0
LWPOLYLINE
  5
28FFC
330
28FF3
100
AcDbEntity
  8
Pel_Muntin_AS
100
AcDbPolyline
 90
        4
 70
     1
 43
0.0
 10
20.375
 20
54.375
 10
12.93799999999999
 20
54.375
 10
12.93799999999999
 20
42.59449999999998
 10
20.375
 20
42.59449999999998
  0
LWPOLYLINE
  5
28FFD
330
28FF3
100
AcDbEntity
  8
Pel_Muntin_AS
100
AcDbPolyline
 90
        4
 70
     1
 43
0.0
 10
12.06200000000001
 20
54.375
 10
4.625
 20
54.375
 10
4.625
 20
42.59449999999998
 10
12.06200000000001
 20
42.59449999999998
  0
LWPOLYLINE
  5
28FFE
330
28FF3
100
AcDbEntity
  8
Pel_Muntin_AS
100
AcDbPolyline
 90
        4
 70
     1
 43
0.0
 10
20.375
 20
41.7185
 10
12.93799999999999
 20
41.7185
 10
12.93799999999999
 20
29.93799999999999
 10
20.375
 20
29.93799999999999
  0
LWPOLYLINE
  5
28FFF
330
28FF3
100
AcDbEntity
  8
Pel_Muntin_AS
100
AcDbPolyline
 90
        4
 70
     1
 43
0.0
 10
12.06200000000001
 20
41.7185
 10
4.625
 20
41.7185
 10
4.625
 20
29.93799999999999
 10
12.06200000000001
 20
29.93799999999999
  0
LWPOLYLINE
  5
29CD3
330
28FF3
100
AcDbEntity
  8
Pel_Hinging
 48
6.0
100
AcDbPolyline
 90
        5
 70
     0
 43
0.0
 10
1.625
 20
57.375
 10
12.5
 20
1.625
 10
23.375
 20
57.375
 10
1.625
 20
29.5
 10
23.375
 20
1.625
  0
ENDBLK
  5
29003
330
28FF3
100
AcDbEntity
  8
0
100
AcDbBlockEnd
  0
BLOCK
  5
29016
330
29005
100
AcDbEntity
  8
0
100
AcDbBlockBegin
  2
ASPCICM2565T
 70
     0
 10
0.0
 20
0.0
 30
0.0
  3
ASPCICM2565T
  1

  0
LWPOLYLINE
  5
29006
330
29005
100
AcDbEntity
  8
Pel_Frame_Outside
100
AcDbPolyline
 90
        4
 70
     1
 43
0.0
 10
0.0
 20
0.0
 10
25.0
 20
0.0
 10
25.0
 20
65.0
 10
0.0
 20
65.0
  0
LWPOLYLINE
  5
29007
330
29005
100
AcDbEntity
  8
Pel_Sash_Outside
100
AcDbPolyline
 90
        4
 70
     1
 43
0.0
 10
1.625
 20
63.375
 10
23.375
 20
63.375
 10
23.375
 20
1.625
 10
1.625
 20
1.625
  0
LWPOLYLINE
  5
29008
330
29005
100
AcDbEntity
  8
Pel_Sash_Inside
100
AcDbPolyline
 90
        4
 70
     1
 43
0.0
 10
20.375
 20
60.375
 10
20.375
 20
4.625
 10
4.625
 20
4.625
 10
4.625
 20
60.375
  0
LWPOLYLINE
  5
2900A
330
29005
100
AcDbEntity
  8
Pel_Muntin_AS
100
AcDbPolyline
 90
        4
 70
     1
 43
0.0
 10
20.375
 20
15.07420000000002
 10
12.93799999999999
 20
15.07420000000002
 10
12.93799999999999
 20
4.625
 10
20.375
 20
4.625
  0
LWPOLYLINE
  5
2900B
330
29005
100
AcDbEntity
  8
Pel_Muntin_AS
100
AcDbPolyline
 90
        4
 70
     1
 43
0.0
 10
12.06200000000001
 20
15.07420000000002
 10
4.625
 20
15.07420000000002
 10
4.625
 20
4.625
 10
12.06200000000001
 20
4.625
  0
LWPOLYLINE
  5
2900C
330
29005
100
AcDbEntity
  8
Pel_Muntin_AS
100
AcDbPolyline
 90
        4
 70
     1
 43
0.0
 10
20.375
 20
26.39940000000001
 10
12.93799999999999
 20
26.39940000000001
 10
12.93799999999999
 20
15.95019999999999
 10
20.375
 20
15.95019999999999
  0
LWPOLYLINE
  5
2900D
330
29005
100
AcDbEntity
  8
Pel_Muntin_AS
100
AcDbPolyline
 90
        4
 70
     1
 43
0.0
 10
12.06200000000001
 20
26.39940000000001
 10
4.625
 20
26.39940000000001
 10
4.625
 20
15.95019999999999
 10
12.06200000000001
 20
15.95019999999999
  0
LWPOLYLINE
  5
2900E
330
29005
100
AcDbEntity
  8
Pel_Muntin_AS
100
AcDbPolyline
 90
        4
 70
     1
 43
0.0
 10
20.375
 20
37.72460000000001
 10
12.93799999999999
 20
37.72460000000001
 10
12.93799999999999
 20
27.27539999999999
 10
20.375
 20
27.27539999999999
  0
LWPOLYLINE
  5
2900F
330
29005
100
AcDbEntity
  8
Pel_Muntin_AS
100
AcDbPolyline
 90
        4
 70
     1
 43
0.0
 10
12.06200000000001
 20
37.72460000000001
 10
4.625
 20
37.72460000000001
 10
4.625
 20
27.27539999999999
 10
12.06200000000001
 20
27.27539999999999
  0
LWPOLYLINE
  5
29010
330
29005
100
AcDbEntity
  8
Pel_Muntin_AS
100
AcDbPolyline
 90
        4
 70
     1
 43
0.0
 10
20.375
 20
49.04980000000001
 10
12.93799999999999
 20
49.04980000000001
 10
12.93799999999999
 20
38.60059999999999
 10
20.375
 20
38.60059999999999
  0
LWPOLYLINE
  5
29011
330
29005
100
AcDbEntity
  8
Pel_Muntin_AS
100
AcDbPolyline
 90
        4
 70
     1
 43
0.0
 10
12.06200000000001
 20
49.04980000000001
 10
4.625
 20
49.04980000000001
 10
4.625
 20
38.60059999999999
 10
12.06200000000001
 20
38.60059999999999
  0
LWPOLYLINE
  5
29012
330
29005
100
AcDbEntity
  8
Pel_Muntin_AS
100
AcDbPolyline
 90
        4
 70
     1
 43
0.0
 10
20.375
 20
60.375
 10
12.93799999999999
 20
60.375
 10
12.93799999999999
 20
49.92579999999998
 10
20.375
 20
49.92579999999998
  0
LWPOLYLINE
  5
29013
330
29005
100
AcDbEntity
  8
Pel_Muntin_AS
100
AcDbPolyline
 90
        4
 70
     1
 43
0.0
 10
12.06200000000001
 20
60.375
 10
4.625
 20
60.375
 10
4.625
 20
49.92579999999998
 10
12.06200000000001
 20
49.92579999999998
  0
LWPOLYLINE
  5
29D99
330
29005
100
AcDbEntity
  8
Pel_Hinging
 48
6.0
100
AcDbPolyline
 90
        5
 70
     0
 43
0.0
 10
1.625
 20
63.375
 10
12.5
 20
1.625
 10
23.375
 20
63.375
 10
1.625
 20
32.5
 10
23.375
 20
1.625
  0
ENDBLK
  5
29017
330
29005
100
AcDbEntity
  8
0
100
AcDbBlockEnd
  0
BLOCK
  5
2902A
330
29019
100
AcDbEntity
  8
0
100
AcDbBlockBegin
  2
ASPCICM2571T
 70
     0
 10
0.0
 20
0.0
 30
0.0
  3
ASPCICM2571T
  1

  0
LWPOLYLINE
  5
2901A
330
29019
100
AcDbEntity
  8
Pel_Frame_Outside
100
AcDbPolyline
 90
        4
 70
     1
 43
0.0
 10
0.0
 20
0.0
 10
25.0
 20
0.0
 10
25.0
 20
71.0
 10
0.0
 20
71.0
  0
LWPOLYLINE
  5
2901B
330
29019
100
AcDbEntity
  8
Pel_Sash_Outside
100
AcDbPolyline
 90
        4
 70
     1
 43
0.0
 10
1.625
 20
69.375
 10
23.375
 20
69.375
 10
23.375
 20
1.625
 10
1.625
 20
1.625
  0
LWPOLYLINE
  5
2901C
330
29019
100
AcDbEntity
  8
Pel_Sash_Inside
100
AcDbPolyline
 90
        4
 70
     1
 43
0.0
 10
20.375
 20
66.375
 10
20.375
 20
4.625
 10
4.625
 20
4.625
 10
4.625
 20
66.375
  0
LWPOLYLINE
  5
2901E
330
29019
100
AcDbEntity
  8
Pel_Muntin_AS
100
AcDbPolyline
 90
        4
 70
     1
 43
0.0
 10
20.375
 20
16.2742
 10
12.93799999999999
 20
16.2742
 10
12.93799999999999
 20
4.625
 10
20.375
 20
4.625
  0
LWPOLYLINE
  5
2901F
330
29019
100
AcDbEntity
  8
Pel_Muntin_AS
100
AcDbPolyline
 90
        4
 70
     1
 43
0.0
 10
12.06200000000001
 20
16.2742
 10
4.625
 20
16.2742
 10
4.625
 20
4.625
 10
12.06200000000001
 20
4.625
  0
LWPOLYLINE
  5
29020
330
29019
100
AcDbEntity
  8
Pel_Muntin_AS
100
AcDbPolyline
 90
        4
 70
     1
 43
0.0
 10
20.375
 20
28.79939999999999
 10
12.93799999999999
 20
28.79939999999999
 10
12.93799999999999
 20
17.15020000000001
 10
20.375
 20
17.15020000000001
  0
LWPOLYLINE
  5
29021
330
29019
100
AcDbEntity
  8
Pel_Muntin_AS
100
AcDbPolyline
 90
        4
 70
     1
 43
0.0
 10
12.06200000000001
 20
28.79939999999999
 10
4.625
 20
28.79939999999999
 10
4.625
 20
17.15020000000001
 10
12.06200000000001
 20
17.15020000000001
  0
LWPOLYLINE
  5
29022
330
29019
100
AcDbEntity
  8
Pel_Muntin_AS
100
AcDbPolyline
 90
        4
 70
     1
 43
0.0
 10
20.375
 20
41.32459999999997
 10
12.93799999999999
 20
41.32459999999997
 10
12.93799999999999
 20
29.6754
 10
20.375
 20
29.6754
  0
LWPOLYLINE
  5
29023
330
29019
100
AcDbEntity
  8
Pel_Muntin_AS
100
AcDbPolyline
 90
        4
 70
     1
 43
0.0
 10
12.06200000000001
 20
41.32459999999997
 10
4.625
 20
41.32459999999997
 10
4.625
 20
29.6754
 10
12.06200000000001
 20
29.6754
  0
LWPOLYLINE
  5
29024
330
29019
100
AcDbEntity
  8
Pel_Muntin_AS
100
AcDbPolyline
 90
        4
 70
     1
 43
0.0
 10
20.375
 20
53.84980000000002
 10
12.93799999999999
 20
53.84980000000002
 10
12.93799999999999
 20
42.20060000000001
 10
20.375
 20
42.20060000000001
  0
LWPOLYLINE
  5
29025
330
29019
100
AcDbEntity
  8
Pel_Muntin_AS
100
AcDbPolyline
 90
        4
 70
     1
 43
0.0
 10
12.06200000000001
 20
53.84980000000002
 10
4.625
 20
53.84980000000002
 10
4.625
 20
42.20060000000001
 10
12.06200000000001
 20
42.20060000000001
  0
LWPOLYLINE
  5
29026
330
29019
100
AcDbEntity
  8
Pel_Muntin_AS
100
AcDbPolyline
 90
        4
 70
     1
 43
0.0
 10
20.375
 20
66.375
 10
12.93799999999999
 20
66.375
 10
12.93799999999999
 20
54.72579999999999
 10
20.375
 20
54.72579999999999
  0
LWPOLYLINE
  5
29027
330
29019
100
AcDbEntity
  8
Pel_Muntin_AS
100
AcDbPolyline
 90
        4
 70
     1
 43
0.0
 10
12.06200000000001
 20
66.375
 10
4.625
 20
66.375
 10
4.625
 20
54.72579999999999
 10
12.06200000000001
 20
54.72579999999999
  0
LWPOLYLINE
  5
29E7E
330
29019
100
AcDbEntity
  8
Pel_Hinging
 48
6.0
100
AcDbPolyline
 90
        5
 70
     0
 43
0.0
 10
1.625
 20
69.375
 10
12.5
 20
1.625
 10
23.375
 20
69.375
 10
1.625
 20
35.5
 10
23.375
 20
1.625
  0
ENDBLK
  5
2902B
330
29019
100
AcDbEntity
  8
0
100
AcDbBlockEnd
  0
BLOCK
  5
29041
330
2902E
100
AcDbEntity
  8
0
100
AcDbBlockBegin
  2
ASPCICM2573T
 70
     0
 10
0.0
 20
0.0
 30
0.0
  3
ASPCICM2573T
  1

  0
LWPOLYLINE
  5
2902F
330
2902E
100
AcDbEntity
  8
Pel_Frame_Outside
100
AcDbPolyline
 90
        4
 70
     1
 43
0.0
 10
0.0
 20
0.0
 10
25.0
 20
0.0
 10
25.0
 20
73.0
 10
0.0
 20
73.0
  0
LWPOLYLINE
  5
29030
330
2902E
100
AcDbEntity
  8
Pel_Sash_Outside
100
AcDbPolyline
 90
        4
 70
     1
 43
0.0
 10
1.625
 20
71.375
 10
23.375
 20
71.375
 10
23.375
 20
1.625
 10
1.625
 20
1.625
  0
LWPOLYLINE
  5
29031
330
2902E
100
AcDbEntity
  8
Pel_Sash_Inside
100
AcDbPolyline
 90
        4
 70
     1
 43
0.0
 10
20.375
 20
68.375
 10
20.375
 20
4.625
 10
4.625
 20
4.625
 10
4.625
 20
68.375
  0
LWPOLYLINE
  5
29033
330
2902E
100
AcDbEntity
  8
Pel_Muntin_AS
100
AcDbPolyline
 90
        4
 70
     1
 43
0.0
 10
20.375
 20
14.52000000000001
 10
12.93799999999999
 20
14.52000000000001
 10
12.93799999999999
 20
4.625
 10
20.375
 20
4.625
  0
LWPOLYLINE
  5
29034
330
2902E
100
AcDbEntity
  8
Pel_Muntin_AS
100
AcDbPolyline
 90
        4
 70
     1
 43
0.0
 10
12.06200000000001
 20
14.52000000000001
 10
4.625
 20
14.52000000000001
 10
4.625
 20
4.625
 10
12.06200000000001
 20
4.625
  0
LWPOLYLINE
  5
29035
330
2902E
100
AcDbEntity
  8
Pel_Muntin_AS
100
AcDbPolyline
 90
        4
 70
     1
 43
0.0
 10
20.375
 20
25.291
 10
12.93799999999999
 20
25.291
 10
12.93799999999999
 20
15.39600000000001
 10
20.375
 20
15.39600000000001
  0
LWPOLYLINE
  5
29036
330
2902E
100
AcDbEntity
  8
Pel_Muntin_AS
100
AcDbPolyline
 90
        4
 70
     1
 43
0.0
 10
12.06200000000001
 20
25.291
 10
4.625
 20
25.291
 10
4.625
 20
15.39600000000001
 10
12.06200000000001
 20
15.39600000000001
  0
LWPOLYLINE
  5
29037
330
2902E
100
AcDbEntity
  8
Pel_Muntin_AS
100
AcDbPolyline
 90
        4
 70
     1
 43
0.0
 10
20.375
 20
36.06200000000001
 10
12.93799999999999
 20
36.06200000000001
 10
12.93799999999999
 20
26.167
 10
20.375
 20
26.167
  0
LWPOLYLINE
  5
29038
330
2902E
100
AcDbEntity
  8
Pel_Muntin_AS
100
AcDbPolyline
 90
        4
 70
     1
 43
0.0
 10
12.06200000000001
 20
36.06200000000001
 10
4.625
 20
36.06200000000001
 10
4.625
 20
26.167
 10
12.06200000000001
 20
26.167
  0
LWPOLYLINE
  5
29039
330
2902E
100
AcDbEntity
  8
Pel_Muntin_AS
100
AcDbPolyline
 90
        4
 70
     1
 43
0.0
 10
20.375
 20
46.833
 10
12.93799999999999
 20
46.833
 10
12.93799999999999
 20
36.93799999999999
 10
20.375
 20
36.93799999999999
  0
LWPOLYLINE
  5
2903A
330
2902E
100
AcDbEntity
  8
Pel_Muntin_AS
100
AcDbPolyline
 90
        4
 70
     1
 43
0.0
 10
12.06200000000001
 20
46.833
 10
4.625
 20
46.833
 10
4.625
 20
36.93799999999999
 10
12.06200000000001
 20
36.93799999999999
  0
LWPOLYLINE
  5
2903B
330
2902E
100
AcDbEntity
  8
Pel_Muntin_AS
100
AcDbPolyline
 90
        4
 70
     1
 43
0.0
 10
20.375
 20
57.60399999999998
 10
12.93799999999999
 20
57.60399999999998
 10
12.93799999999999
 20
47.709
 10
20.375
 20
47.709
  0
LWPOLYLINE
  5
2903C
330
2902E
100
AcDbEntity
  8
Pel_Muntin_AS
100
AcDbPolyline
 90
        4
 70
     1
 43
0.0
 10
12.06200000000001
 20
57.60399999999998
 10
4.625
 20
57.60399999999998
 10
4.625
 20
47.709
 10
12.06200000000001
 20
47.709
  0
LWPOLYLINE
  5
2903D
330
2902E
100
AcDbEntity
  8
Pel_Muntin_AS
100
AcDbPolyline
 90
        4
 70
     1
 43
0.0
 10
20.375
 20
68.375
 10
12.93799999999999
 20
68.375
 10
12.93799999999999
 20
58.47999999999998
 10
20.375
 20
58.47999999999998
  0
LWPOLYLINE
  5
2903E
330
2902E
100
AcDbEntity
  8
Pel_Muntin_AS
100
AcDbPolyline
 90
        4
 70
     1
 43
0.0
 10
12.06200000000001
 20
68.375
 10
4.625
 20
68.375
 10
4.625
 20
58.47999999999998
 10
12.06200000000001
 20
58.47999999999998
  0
LWPOLYLINE
  5
29E9E
330
2902E
100
AcDbEntity
  8
Pel_Hinging
 48
6.0
100
AcDbPolyline
 90
        5
 70
     0
 43
0.0
 10
1.625
 20
71.375
 10
12.5
 20
1.625
 10
23.375
 20
71.375
 10
1.625
 20
36.5
 10
23.375
 20
1.625
  0
ENDBLK
  5
29042
330
2902E
100
AcDbEntity
  8
0
100
AcDbBlockEnd
  0
BLOCK
  5
2906F
330
29044
100
AcDbEntity
  8
0
100
AcDbBlockBegin
  2
ASPCICM3573T
 70
     0
 10
0.0
 20
0.0
 30
0.0
  3
ASPCICM3573T
  1

  0
LWPOLYLINE
  5
29045
330
29044
100
AcDbEntity
  8
Pel_Frame_Outside
100
AcDbPolyline
 90
        4
 70
     1
 43
0.0
 10
0.0
 20
0.0
 10
35.0
 20
0.0
 10
35.0
 20
73.0
 10
0.0
 20
73.0
  0
LWPOLYLINE
  5
29046
330
29044
100
AcDbEntity
  8
Pel_Sash_Outside
100
AcDbPolyline
 90
        4
 70
     1
 43
0.0
 10
1.625
 20
71.375
 10
33.375
 20
71.375
 10
33.375
 20
1.625
 10
1.625
 20
1.625
  0
LWPOLYLINE
  5
29047
330
29044
100
AcDbEntity
  8
Pel_Sash_Inside
100
AcDbPolyline
 90
        4
 70
     1
 43
0.0
 10
30.375
 20
68.375
 10
30.375
 20
4.625
 10
4.625
 20
4.625
 10
4.625
 20
68.375
  0
LWPOLYLINE
  5
29049
330
29044
100
AcDbEntity
  8
Pel_Muntin_AS
100
AcDbPolyline
 90
        4
 70
     1
 43
0.0
 10
17.06200000000001
 20
14.52000000000001
 10
11.28150000000005
 20
14.52000000000001
 10
11.28150000000005
 20
4.625
 10
17.06200000000001
 20
4.625
  0
LWPOLYLINE
  5
2904A
330
29044
100
AcDbEntity
  8
Pel_Muntin_AS
100
AcDbPolyline
 90
        4
 70
     1
 43
0.0
 10
10.40549999999996
 20
14.52000000000001
 10
4.625
 20
14.52000000000001
 10
4.625
 20
4.625
 10
10.40549999999996
 20
4.625
  0
LWPOLYLINE
  5
2904B
330
29044
100
AcDbEntity
  8
Pel_Muntin_AS
100
AcDbPolyline
 90
        4
 70
     1
 43
0.0
 10
17.06200000000001
 20
25.291
 10
11.28150000000005
 20
25.291
 10
11.28150000000005
 20
15.39600000000001
 10
17.06200000000001
 20
15.39600000000001
  0
LWPOLYLINE
  5
2904C
330
29044
100
AcDbEntity
  8
Pel_Muntin_AS
100
AcDbPolyline
 90
        4
 70
     1
 43
0.0
 10
10.40549999999996
 20
25.291
 10
4.625
 20
25.291
 10
4.625
 20
15.39600000000001
 10
10.40549999999996
 20
15.39600000000001
  0
LWPOLYLINE
  5
2904D
330
29044
100
AcDbEntity
  8
Pel_Muntin_AS
100
AcDbPolyline
 90
        4
 70
     1
 43
0.0
 10
23.71849999999995
 20
14.52000000000001
 10
17.93799999999999
 20
14.52000000000001
 10
17.93799999999999
 20
4.625
 10
23.71849999999995
 20
4.625
  0
LWPOLYLINE
  5
2904E
330
29044
100
AcDbEntity
  8
Pel_Muntin_AS
100
AcDbPolyline
 90
        4
 70
     1
 43
0.0
 10
23.71849999999995
 20
25.29098999999999
 10
17.93799999999999
 20
25.29098999999999
 10
17.93799999999999
 20
15.39600000000001
 10
23.71849999999995
 20
15.39600000000001
  0
LWPOLYLINE
  5
2904F
330
29044
100
AcDbEntity
  8
Pel_Muntin_AS
100
AcDbPolyline
 90
        4
 70
     1
 43
0.0
 10
17.06200000000001
 20
68.375
 10
11.28150000000005
 20
68.375
 10
11.28150000000005
 20
58.47999999999998
 10
17.06200000000001
 20
58.47999999999998
  0
LWPOLYLINE
  5
29050
330
29044
100
AcDbEntity
  8
Pel_Muntin_AS
100
AcDbPolyline
 90
        4
 70
     1
 43
0.0
 10
10.40549999999996
 20
68.375
 10
4.625
 20
68.375
 10
4.625
 20
58.47999999999998
 10
10.40549999999996
 20
58.47999999999998
  0
LWPOLYLINE
  5
29051
330
29044
100
AcDbEntity
  8
Pel_Muntin_AS
100
AcDbPolyline
 90
        4
 70
     1
 43
0.0
 10
23.71849999999995
 20
68.37499
 10
17.93799999999999
 20
68.37499
 10
17.93799999999999
 20
58.47999999999998
 10
23.71849999999995
 20
58.47999999999998
  0
LWPOLYLINE
  5
29052
330
29044
100
AcDbEntity
  8
Pel_Muntin_AS
100
AcDbPolyline
 90
        4
 70
     1
 43
0.0
 10
30.375
 20
14.52000000000001
 10
24.59450000000004
 20
14.52000000000001
 10
24.59450000000004
 20
4.625
 10
30.375
 20
4.625
  0
LWPOLYLINE
  5
29053
330
29044
100
AcDbEntity
  8
Pel_Muntin_AS
100
AcDbPolyline
 90
        4
 70
     1
 43
0.0
 10
30.375
 20
25.29098999999999
 10
24.59450000000004
 20
25.29098999999999
 10
24.59450000000004
 20
15.39600000000001
 10
30.375
 20
15.39600000000001
  0
LWPOLYLINE
  5
29054
330
29044
100
AcDbEntity
  8
Pel_Muntin_AS
100
AcDbPolyline
 90
        4
 70
     1
 43
0.0
 10
30.375
 20
68.37499
 10
24.59450000000004
 20
68.37499
 10
24.59450000000004
 20
58.47999999999998
 10
30.375
 20
58.47999999999998
  0
LWPOLYLINE
  5
29055
330
29044
100
AcDbEntity
  8
Pel_Muntin_AS
100
AcDbPolyline
 90
        4
 70
     1
 43
0.0
 10
17.06200000000001
 20
36.06200999999999
 10
11.28150000000005
 20
36.06200999999999
 10
11.28150000000005
 20
26.16699
 10
17.06200000000001
 20
26.16699
  0
LWPOLYLINE
  5
29056
330
29044
100
AcDbEntity
  8
Pel_Muntin_AS
100
AcDbPolyline
 90
        4
 70
     1
 43
0.0
 10
10.40549999999996
 20
36.06200999999999
 10
4.625
 20
36.06200999999999
 10
4.625
 20
26.16699
 10
10.40549999999996
 20
26.16699
  0
LWPOLYLINE
  5
29057
330
29044
100
AcDbEntity
  8
Pel_Muntin_AS
100
AcDbPolyline
 90
        4
 70
     1
 43
0.0
 10
23.71849999999995
 20
36.06200000000001
 10
17.93799999999999
 20
36.06200000000001
 10
17.93799999999999
 20
26.16699
 10
23.71849999999995
 20
26.16699
  0
LWPOLYLINE
  5
29058
330
29044
100
AcDbEntity
  8
Pel_Muntin_AS
100
AcDbPolyline
 90
        4
 70
     1
 43
0.0
 10
30.375
 20
36.06200000000001
 10
24.59450000000004
 20
36.06200000000001
 10
24.59450000000004
 20
26.16699
 10
30.375
 20
26.16699
  0
LWPOLYLINE
  5
29059
330
29044
100
AcDbEntity
  8
Pel_Muntin_AS
100
AcDbPolyline
 90
        4
 70
     1
 43
0.0
 10
17.06200000000001
 20
68.375
 10
11.28150000000005
 20
68.375
 10
11.28150000000005
 20
58.48000000000002
 10
17.06200000000001
 20
58.48000000000002
  0
LWPOLYLINE
  5
2905A
330
29044
100
AcDbEntity
  8
Pel_Muntin_AS
100
AcDbPolyline
 90
        4
 70
     1
 43
0.0
 10
10.40549999999996
 20
68.375
 10
4.625
 20
68.375
 10
4.625
 20
58.48000000000002
 10
10.40549999999996
 20
58.48000000000002
  0
LWPOLYLINE
  5
2905B
330
29044
100
AcDbEntity
  8
Pel_Muntin_AS
100
AcDbPolyline
 90
        4
 70
     1
 43
0.0
 10
23.71849999999995
 20
68.37499000000002
 10
17.93799999999999
 20
68.37499000000002
 10
17.93799999999999
 20
58.47999999999998
 10
23.71849999999995
 20
58.47999999999998
  0
LWPOLYLINE
  5
2905C
330
29044
100
AcDbEntity
  8
Pel_Muntin_AS
100
AcDbPolyline
 90
        4
 70
     1
 43
0.0
 10
30.375
 20
68.37499000000002
 10
24.59450000000004
 20
68.37499000000002
 10
24.59450000000004
 20
58.47999999999998
 10
30.375
 20
58.47999999999998
  0
LWPOLYLINE
  5
2905D
330
29044
100
AcDbEntity
  8
Pel_Muntin_AS
100
AcDbPolyline
 90
        4
 70
     1
 43
0.0
 10
17.06200000000001
 20
46.833
 10
11.28150000000005
 20
46.833
 10
11.28150000000005
 20
36.93799999999999
 10
17.06200000000001
 20
36.93799999999999
  0
LWPOLYLINE
  5
2905E
330
29044
100
AcDbEntity
  8
Pel_Muntin_AS
100
AcDbPolyline
 90
        4
 70
     1
 43
0.0
 10
10.40549999999996
 20
46.833
 10
4.625
 20
46.833
 10
4.625
 20
36.93799999999999
 10
10.40549999999996
 20
36.93799999999999
  0
LWPOLYLINE
  5
2905F
330
29044
100
AcDbEntity
  8
Pel_Muntin_AS
100
AcDbPolyline
 90
        4
 70
     1
 43
0.0
 10
23.71849999999995
 20
46.83298999999999
 10
17.93799999999999
 20
46.83298999999999
 10
17.93799999999999
 20
36.93799999999999
 10
23.71849999999995
 20
36.93799999999999
  0
LWPOLYLINE
  5
29060
330
29044
100
AcDbEntity
  8
Pel_Muntin_AS
100
AcDbPolyline
 90
        4
 70
     1
 43
0.0
 10
30.375
 20
46.83298999999999
 10
24.59450000000004
 20
46.83298999999999
 10
24.59450000000004
 20
36.93799999999999
 10
30.375
 20
36.93799999999999
  0
LWPOLYLINE
  5
29061
330
29044
100
AcDbEntity
  8
Pel_Muntin_AS
100
AcDbPolyline
 90
        4
 70
     1
 43
0.0
 10
17.06200000000001
 20
46.833
 10
11.28150000000005
 20
46.833
 10
11.28150000000005
 20
36.93799999999999
 10
17.06200000000001
 20
36.93799999999999
  0
LWPOLYLINE
  5
29062
330
29044
100
AcDbEntity
  8
Pel_Muntin_AS
100
AcDbPolyline
 90
        4
 70
     1
 43
0.0
 10
10.40549999999996
 20
46.833
 10
4.625
 20
46.833
 10
4.625
 20
36.93799999999999
 10
10.40549999999996
 20
36.93799999999999
  0
LWPOLYLINE
  5
29063
330
29044
100
AcDbEntity
  8
Pel_Muntin_AS
100
AcDbPolyline
 90
        4
 70
     1
 43
0.0
 10
23.71849999999995
 20
46.83298999999999
 10
17.93799999999999
 20
46.83298999999999
 10
17.93799999999999
 20
36.93799999999999
 10
23.71849999999995
 20
36.93799999999999
  0
LWPOLYLINE
  5
29064
330
29044
100
AcDbEntity
  8
Pel_Muntin_AS
100
AcDbPolyline
 90
        4
 70
     1
 43
0.0
 10
30.375
 20
46.83298999999999
 10
24.59450000000004
 20
46.83298999999999
 10
24.59450000000004
 20
36.93799999999999
 10
30.375
 20
36.93799999999999
  0
LWPOLYLINE
  5
29065
330
29044
100
AcDbEntity
  8
Pel_Muntin_AS
100
AcDbPolyline
 90
        4
 70
     1
 43
0.0
 10
17.06200000000001
 20
57.60400000000001
 10
11.28150000000005
 20
57.60400000000001
 10
11.28150000000005
 20
47.709
 10
17.06200000000001
 20
47.709
  0
LWPOLYLINE
  5
29066
330
29044
100
AcDbEntity
  8
Pel_Muntin_AS
100
AcDbPolyline
 90
        4
 70
     1
 43
0.0
 10
10.40549999999996
 20
57.60400000000001
 10
4.625
 20
57.60400000000001
 10
4.625
 20
47.709
 10
10.40549999999996
 20
47.709
  0
LWPOLYLINE
  5
29067
330
29044
100
AcDbEntity
  8
Pel_Muntin_AS
100
AcDbPolyline
 90
        4
 70
     1
 43
0.0
 10
23.71849999999995
 20
57.60399000000001
 10
17.93799999999999
 20
57.60399000000001
 10
17.93799999999999
 20
47.709
 10
23.71849999999995
 20
47.709
  0
LWPOLYLINE
  5
29068
330
29044
100
AcDbEntity
  8
Pel_Muntin_AS
100
AcDbPolyline
 90
        4
 70
     1
 43
0.0
 10
30.375
 20
57.60399000000001
 10
24.59450000000004
 20
57.60399000000001
 10
24.59450000000004
 20
47.709
 10
30.375
 20
47.709
  0
LWPOLYLINE
  5
29069
330
29044
100
AcDbEntity
  8
Pel_Muntin_AS
100
AcDbPolyline
 90
        4
 70
     1
 43
0.0
 10
17.06200000000001
 20
57.60400000000001
 10
11.28150000000005
 20
57.60400000000001
 10
11.28150000000005
 20
47.709
 10
17.06200000000001
 20
47.709
  0
LWPOLYLINE
  5
2906A
330
29044
100
AcDbEntity
  8
Pel_Muntin_AS
100
AcDbPolyline
 90
        4
 70
     1
 43
0.0
 10
10.40549999999996
 20
57.60400000000001
 10
4.625
 20
57.60400000000001
 10
4.625
 20
47.709
 10
10.40549999999996
 20
47.709
  0
LWPOLYLINE
  5
2906B
330
29044
100
AcDbEntity
  8
Pel_Muntin_AS
100
AcDbPolyline
 90
        4
 70
     1
 43
0.0
 10
23.71849999999995
 20
57.60399000000001
 10
17.93799999999999
 20
57.60399000000001
 10
17.93799999999999
 20
47.709
 10
23.71849999999995
 20
47.709
  0
LWPOLYLINE
  5
2906C
330
29044
100
AcDbEntity
  8
Pel_Muntin_AS
100
AcDbPolyline
 90
        4
 70
     1
 43
0.0
 10
30.375
 20
57.60399000000001
 10
24.59450000000004
 20
57.60399000000001
 10
24.59450000000004
 20
47.709
 10
30.375
 20
47.709
  0
LWPOLYLINE
  5
29F06
330
29044
100
AcDbEntity
  8
Pel_Hinging
 48
6.0
100
AcDbPolyline
 90
        5
 70
     0
 43
0.0
 10
1.625
 20
71.375
 10
17.5
 20
1.625
 10
33.375
 20
71.375
 10
1.625
 20
36.5
 10
33.375
 20
1.625
  0
ENDBLK
  5
29070
330
29044
100
AcDbEntity
  8
0
100
AcDbBlockEnd
  0
BLOCK
  5
2908B
330
29072
100
AcDbEntity
  8
0
100
AcDbBlockBegin
  2
ASPCICM2973T
 70
     0
 10
0.0
 20
0.0
 30
0.0
  3
ASPCICM2973T
  1

  0
LWPOLYLINE
  5
29073
330
29072
100
AcDbEntity
  8
Pel_Frame_Outside
100
AcDbPolyline
 90
        4
 70
     1
 43
0.0
 10
0.0
 20
0.0
 10
29.0
 20
0.0
 10
29.0
 20
73.0
 10
0.0
 20
73.0
  0
LWPOLYLINE
  5
29074
330
29072
100
AcDbEntity
  8
Pel_Sash_Outside
100
AcDbPolyline
 90
        4
 70
     1
 43
0.0
 10
1.625
 20
71.375
 10
27.375
 20
71.375
 10
27.375
 20
1.625
 10
1.625
 20
1.625
  0
LWPOLYLINE
  5
29075
330
29072
100
AcDbEntity
  8
Pel_Sash_Inside
100
AcDbPolyline
 90
        4
 70
     1
 43
0.0
 10
24.375
 20
68.375
 10
24.375
 20
4.625
 10
4.625
 20
4.625
 10
4.625
 20
68.375
  0
LWPOLYLINE
  5
29077
330
29072
100
AcDbEntity
  8
Pel_Muntin_AS
100
AcDbPolyline
 90
        4
 70
     1
 43
0.0
 10
17.49966999999998
 20
14.52000000000001
 10
11.50033000000002
 20
14.52000000000001
 10
11.50033000000002
 20
4.625
 10
17.49966999999998
 20
4.625
  0
LWPOLYLINE
  5
29078
330
29072
100
AcDbEntity
  8
Pel_Muntin_AS
100
AcDbPolyline
 90
        4
 70
     1
 43
0.0
 10
10.62432999999998
 20
14.52000000000001
 10
4.625
 20
14.52000000000001
 10
4.625
 20
4.625
 10
10.62432999999998
 20
4.625
  0
LWPOLYLINE
  5
29079
330
29072
100
AcDbEntity
  8
Pel_Muntin_AS
100
AcDbPolyline
 90
        4
 70
     1
 43
0.0
 10
17.49966999999998
 20
25.291
 10
11.50033000000002
 20
25.291
 10
11.50033000000002
 20
15.39600000000001
 10
17.49966999999998
 20
15.39600000000001
  0
LWPOLYLINE
  5
2907A
330
29072
100
AcDbEntity
  8
Pel_Muntin_AS
100
AcDbPolyline
 90
        4
 70
     1
 43
0.0
 10
10.62432999999998
 20
25.291
 10
4.625
 20
25.291
 10
4.625
 20
15.39600000000001
 10
10.62432999999998
 20
15.39600000000001
  0
LWPOLYLINE
  5
2907B
330
29072
100
AcDbEntity
  8
Pel_Muntin_AS
100
AcDbPolyline
 90
        4
 70
     1
 43
0.0
 10
24.37500999999997
 20
14.52000000000001
 10
18.37567000000001
 20
14.52000000000001
 10
18.37567000000001
 20
4.625
 10
24.37500999999997
 20
4.625
  0
LWPOLYLINE
  5
2907C
330
29072
100
AcDbEntity
  8
Pel_Muntin_AS
100
AcDbPolyline
 90
        4
 70
     1
 43
0.0
 10
24.37500999999997
 20
25.29098999999999
 10
18.37567000000001
 20
25.29098999999999
 10
18.37567000000001
 20
15.39600000000001
 10
24.37500999999997
 20
15.39600000000001
  0
LWPOLYLINE
  5
2907D
330
29072
100
AcDbEntity
  8
Pel_Muntin_AS
100
AcDbPolyline
 90
        4
 70
     1
 43
0.0
 10
24.37500999999997
 20
68.375
 10
18.37567000000001
 20
68.375
 10
18.37567000000001
 20
58.47999999999998
 10
24.37500999999997
 20
58.47999999999998
  0
LWPOLYLINE
  5
2907E
330
29072
100
AcDbEntity
  8
Pel_Muntin_AS
100
AcDbPolyline
 90
        4
 70
     1
 43
0.0
 10
17.49966999999998
 20
68.375
 10
11.50033000000002
 20
68.375
 10
11.50033000000002
 20
58.47999999999998
 10
17.49966999999998
 20
58.47999999999998
  0
LWPOLYLINE
  5
2907F
330
29072
100
AcDbEntity
  8
Pel_Muntin_AS
100
AcDbPolyline
 90
        4
 70
     1
 43
0.0
 10
10.62434000000002
 20
68.375
 10
4.625
 20
68.375
 10
4.625
 20
58.47999999999998
 10
10.62434000000002
 20
58.47999999999998
  0
LWPOLYLINE
  5
29080
330
29072
100
AcDbEntity
  8
Pel_Muntin_AS
100
AcDbPolyline
 90
        4
 70
     1
 43
0.0
 10
17.49966999999998
 20
36.06200000000001
 10
11.50033000000002
 20
36.06200000000001
 10
11.50033000000002
 20
26.16699
 10
17.49966999999998
 20
26.16699
  0
LWPOLYLINE
  5
29081
330
29072
100
AcDbEntity
  8
Pel_Muntin_AS
100
AcDbPolyline
 90
        4
 70
     1
 43
0.0
 10
10.62432999999998
 20
36.06200000000001
 10
4.625
 20
36.06200000000001
 10
4.625
 20
26.16699
 10
10.62432999999998
 20
26.16699
  0
LWPOLYLINE
  5
29082
330
29072
100
AcDbEntity
  8
Pel_Muntin_AS
100
AcDbPolyline
 90
        4
 70
     1
 43
0.0
 10
24.37500999999997
 20
36.06199000000001
 10
18.37567000000001
 20
36.06199000000001
 10
18.37567000000001
 20
26.16699
 10
24.37500999999997
 20
26.16699
  0
LWPOLYLINE
  5
29083
330
29072
100
AcDbEntity
  8
Pel_Muntin_AS
100
AcDbPolyline
 90
        4
 70
     1
 43
0.0
 10
17.49966999999998
 20
46.833
 10
11.50033000000002
 20
46.833
 10
11.50033000000002
 20
36.93799999999999
 10
17.49966999999998
 20
36.93799999999999
  0
LWPOLYLINE
  5
29084
330
29072
100
AcDbEntity
  8
Pel_Muntin_AS
100
AcDbPolyline
 90
        4
 70
     1
 43
0.0
 10
10.62432999999998
 20
46.833
 10
4.625
 20
46.833
 10
4.625
 20
36.93799999999999
 10
10.62432999999998
 20
36.93799999999999
  0
LWPOLYLINE
  5
29085
330
29072
100
AcDbEntity
  8
Pel_Muntin_AS
100
AcDbPolyline
 90
        4
 70
     1
 43
0.0
 10
24.37500999999997
 20
46.83298999999999
 10
18.37567000000001
 20
46.83298999999999
 10
18.37567000000001
 20
36.93799999999999
 10
24.37500999999997
 20
36.93799999999999
  0
LWPOLYLINE
  5
29086
330
29072
100
AcDbEntity
  8
Pel_Muntin_AS
100
AcDbPolyline
 90
        4
 70
     1
 43
0.0
 10
17.49966999999998
 20
57.60400000000001
 10
11.50033000000002
 20
57.60400000000001
 10
11.50033000000002
 20
47.709
 10
17.49966999999998
 20
47.709
  0
LWPOLYLINE
  5
29087
330
29072
100
AcDbEntity
  8
Pel_Muntin_AS
100
AcDbPolyline
 90
        4
 70
     1
 43
0.0
 10
10.62432999999998
 20
57.60400000000001
 10
4.625
 20
57.60400000000001
 10
4.625
 20
47.709
 10
10.62432999999998
 20
47.709
  0
LWPOLYLINE
  5
29088
330
29072
100
AcDbEntity
  8
Pel_Muntin_AS
100
AcDbPolyline
 90
        4
 70
     1
 43
0.0
 10
24.37500999999997
 20
57.60399000000001
 10
18.37567000000001
 20
57.60399000000001
 10
18.37567000000001
 20
47.709
 10
24.37500999999997
 20
47.709
  0
LWPOLYLINE
  5
29EC6
330
29072
100
AcDbEntity
  8
Pel_Hinging
 48
6.0
100
AcDbPolyline
 90
        5
 70
     0
 43
0.0
 10
1.625
 20
71.375
 10
14.5
 20
1.625
 10
27.375
 20
71.375
 10
1.625
 20
36.5
 10
27.375
 20
1.625
  0
ENDBLK
  5
2908C
330
29072
100
AcDbEntity
  8
0
100
AcDbBlockEnd
  0
BLOCK
  5
290B1
330
2908E
100
AcDbEntity
  8
0
100
AcDbBlockBegin
  2
ASPCICM3571T
 70
     0
 10
0.0
 20
0.0
 30
0.0
  3
ASPCICM3571T
  1

  0
LWPOLYLINE
  5
2908F
330
2908E
100
AcDbEntity
  8
Pel_Frame_Outside
100
AcDbPolyline
 90
        4
 70
     1
 43
0.0
 10
0.0
 20
0.0
 10
35.0
 20
0.0
 10
35.0
 20
71.0
 10
0.0
 20
71.0
  0
LWPOLYLINE
  5
29090
330
2908E
100
AcDbEntity
  8
Pel_Sash_Outside
100
AcDbPolyline
 90
        4
 70
     1
 43
0.0
 10
1.625
 20
69.375
 10
33.375
 20
69.375
 10
33.375
 20
1.625
 10
1.625
 20
1.625
  0
LWPOLYLINE
  5
29091
330
2908E
100
AcDbEntity
  8
Pel_Sash_Inside
100
AcDbPolyline
 90
        4
 70
     1
 43
0.0
 10
30.375
 20
66.375
 10
30.375
 20
4.625
 10
4.625
 20
4.625
 10
4.625
 20
66.375
  0
LWPOLYLINE
  5
29093
330
2908E
100
AcDbEntity
  8
Pel_Muntin_AS
100
AcDbPolyline
 90
        4
 70
     1
 43
0.0
 10
17.06200000000001
 20
16.2742
 10
11.28150000000005
 20
16.2742
 10
11.28150000000005
 20
4.625
 10
17.06200000000001
 20
4.625
  0
LWPOLYLINE
  5
29094
330
2908E
100
AcDbEntity
  8
Pel_Muntin_AS
100
AcDbPolyline
 90
        4
 70
     1
 43
0.0
 10
10.40549999999996
 20
16.2742
 10
4.625
 20
16.2742
 10
4.625
 20
4.625
 10
10.40549999999996
 20
4.625
  0
LWPOLYLINE
  5
29095
330
2908E
100
AcDbEntity
  8
Pel_Muntin_AS
100
AcDbPolyline
 90
        4
 70
     1
 43
0.0
 10
17.06200000000001
 20
28.79941
 10
11.28150000000005
 20
28.79941
 10
11.28150000000005
 20
17.15020000000001
 10
17.06200000000001
 20
17.15020000000001
  0
LWPOLYLINE
  5
29096
330
2908E
100
AcDbEntity
  8
Pel_Muntin_AS
100
AcDbPolyline
 90
        4
 70
     1
 43
0.0
 10
10.40549999999996
 20
28.79941
 10
4.625
 20
28.79941
 10
4.625
 20
17.15020000000001
 10
10.40549999999996
 20
17.15020000000001
  0
LWPOLYLINE
  5
29097
330
2908E
100
AcDbEntity
  8
Pel_Muntin_AS
100
AcDbPolyline
 90
        4
 70
     1
 43
0.0
 10
23.71849999999995
 20
16.2742
 10
17.93799999999999
 20
16.2742
 10
17.93799999999999
 20
4.625
 10
23.71849999999995
 20
4.625
  0
LWPOLYLINE
  5
29098
330
2908E
100
AcDbEntity
  8
Pel_Muntin_AS
100
AcDbPolyline
 90
        4
 70
     1
 43
0.0
 10
23.71849999999995
 20
28.79939999999999
 10
17.93799999999999
 20
28.79939999999999
 10
17.93799999999999
 20
17.15020000000001
 10
23.71849999999995
 20
17.15020000000001
  0
LWPOLYLINE
  5
29099
330
2908E
100
AcDbEntity
  8
Pel_Muntin_AS
100
AcDbPolyline
 90
        4
 70
     1
 43
0.0
 10
17.06200000000001
 20
66.375
 10
11.28150000000005
 20
66.375
 10
11.28150000000005
 20
54.72579999999999
 10
17.06200000000001
 20
54.72579999999999
  0
LWPOLYLINE
  5
2909A
330
2908E
100
AcDbEntity
  8
Pel_Muntin_AS
100
AcDbPolyline
 90
        4
 70
     1
 43
0.0
 10
10.40549999999996
 20
66.375
 10
4.625
 20
66.375
 10
4.625
 20
54.72579999999999
 10
10.40549999999996
 20
54.72579999999999
  0
LWPOLYLINE
  5
2909B
330
2908E
100
AcDbEntity
  8
Pel_Muntin_AS
100
AcDbPolyline
 90
        4
 70
     1
 43
0.0
 10
23.71849999999995
 20
66.37499000000002
 10
17.93799999999999
 20
66.37499000000002
 10
17.93799999999999
 20
54.72579999999999
 10
23.71849999999995
 20
54.72579999999999
  0
LWPOLYLINE
  5
2909C
330
2908E
100
AcDbEntity
  8
Pel_Muntin_AS
100
AcDbPolyline
 90
        4
 70
     1
 43
0.0
 10
30.375
 20
16.2742
 10
24.59450000000004
 20
16.2742
 10
24.59450000000004
 20
4.625
 10
30.375
 20
4.625
  0
LWPOLYLINE
  5
2909D
330
2908E
100
AcDbEntity
  8
Pel_Muntin_AS
100
AcDbPolyline
 90
        4
 70
     1
 43
0.0
 10
30.375
 20
28.79939999999999
 10
24.59450000000004
 20
28.79939999999999
 10
24.59450000000004
 20
17.15020000000001
 10
30.375
 20
17.15020000000001
  0
LWPOLYLINE
  5
2909E
330
2908E
100
AcDbEntity
  8
Pel_Muntin_AS
100
AcDbPolyline
 90
        4
 70
     1
 43
0.0
 10
30.375
 20
66.37499000000002
 10
24.59450000000004
 20
66.37499000000002
 10
24.59450000000004
 20
54.72579999999999
 10
30.375
 20
54.72579999999999
  0
LWPOLYLINE
  5
2909F
330
2908E
100
AcDbEntity
  8
Pel_Muntin_AS
100
AcDbPolyline
 90
        4
 70
     1
 43
0.0
 10
17.06200000000001
 20
41.32461000000001
 10
11.28150000000005
 20
41.32461000000001
 10
11.28150000000005
 20
29.6754
 10
17.06200000000001
 20
29.6754
  0
LWPOLYLINE
  5
290A0
330
2908E
100
AcDbEntity
  8
Pel_Muntin_AS
100
AcDbPolyline
 90
        4
 70
     1
 43
0.0
 10
10.40549999999996
 20
41.32461000000001
 10
4.625
 20
41.32461000000001
 10
4.625
 20
29.6754
 10
10.40549999999996
 20
29.6754
  0
LWPOLYLINE
  5
290A1
330
2908E
100
AcDbEntity
  8
Pel_Muntin_AS
100
AcDbPolyline
 90
        4
 70
     1
 43
0.0
 10
23.71849999999995
 20
41.32459999999997
 10
17.93799999999999
 20
41.32459999999997
 10
17.93799999999999
 20
29.6754
 10
23.71849999999995
 20
29.6754
  0
LWPOLYLINE
  5
290A2
330
2908E
100
AcDbEntity
  8
Pel_Muntin_AS
100
AcDbPolyline
 90
        4
 70
     1
 43
0.0
 10
30.375
 20
41.32459999999997
 10
24.59450000000004
 20
41.32459999999997
 10
24.59450000000004
 20
29.6754
 10
30.375
 20
29.6754
  0
LWPOLYLINE
  5
290A3
330
2908E
100
AcDbEntity
  8
Pel_Muntin_AS
100
AcDbPolyline
 90
        4
 70
     1
 43
0.0
 10
17.06200000000001
 20
66.375
 10
11.28150000000005
 20
66.375
 10
11.28150000000005
 20
54.72580000000005
 10
17.06200000000001
 20
54.72580000000005
  0
LWPOLYLINE
  5
290A4
330
2908E
100
AcDbEntity
  8
Pel_Muntin_AS
100
AcDbPolyline
 90
        4
 70
     1
 43
0.0
 10
10.40549999999996
 20
66.375
 10
4.625
 20
66.375
 10
4.625
 20
54.72580000000005
 10
10.40549999999996
 20
54.72580000000005
  0
LWPOLYLINE
  5
290A5
330
2908E
100
AcDbEntity
  8
Pel_Muntin_AS
100
AcDbPolyline
 90
        4
 70
     1
 43
0.0
 10
23.71849999999995
 20
66.37499000000002
 10
17.93799999999999
 20
66.37499000000002
 10
17.93799999999999
 20
54.72579999999999
 10
23.71849999999995
 20
54.72579999999999
  0
LWPOLYLINE
  5
290A6
330
2908E
100
AcDbEntity
  8
Pel_Muntin_AS
100
AcDbPolyline
 90
        4
 70
     1
 43
0.0
 10
30.375
 20
66.37499000000002
 10
24.59450000000004
 20
66.37499000000002
 10
24.59450000000004
 20
54.72579999999999
 10
30.375
 20
54.72579999999999
  0
LWPOLYLINE
  5
290A7
330
2908E
100
AcDbEntity
  8
Pel_Muntin_AS
100
AcDbPolyline
 90
        4
 70
     1
 43
0.0
 10
17.06200000000001
 20
53.84980000000002
 10
11.28150000000005
 20
53.84980000000002
 10
11.28150000000005
 20
42.20060000000001
 10
17.06200000000001
 20
42.20060000000001
  0
LWPOLYLINE
  5
290A8
330
2908E
100
AcDbEntity
  8
Pel_Muntin_AS
100
AcDbPolyline
 90
        4
 70
     1
 43
0.0
 10
10.40549999999996
 20
53.84980000000002
 10
4.625
 20
53.84980000000002
 10
4.625
 20
42.20060000000001
 10
10.40549999999996
 20
42.20060000000001
  0
LWPOLYLINE
  5
290A9
330
2908E
100
AcDbEntity
  8
Pel_Muntin_AS
100
AcDbPolyline
 90
        4
 70
     1
 43
0.0
 10
23.71849999999995
 20
53.84978999999998
 10
17.93799999999999
 20
53.84978999999998
 10
17.93799999999999
 20
42.20060000000001
 10
23.71849999999995
 20
42.20060000000001
  0
LWPOLYLINE
  5
290AA
330
2908E
100
AcDbEntity
  8
Pel_Muntin_AS
100
AcDbPolyline
 90
        4
 70
     1
 43
0.0
 10
30.375
 20
53.84978999999998
 10
24.59450000000004
 20
53.84978999999998
 10
24.59450000000004
 20
42.20060000000001
 10
30.375
 20
42.20060000000001
  0
LWPOLYLINE
  5
290AB
330
2908E
100
AcDbEntity
  8
Pel_Muntin_AS
100
AcDbPolyline
 90
        4
 70
     1
 43
0.0
 10
17.06200000000001
 20
53.84980000000002
 10
11.28150000000005
 20
53.84980000000002
 10
11.28150000000005
 20
42.20060000000001
 10
17.06200000000001
 20
42.20060000000001
  0
LWPOLYLINE
  5
290AC
330
2908E
100
AcDbEntity
  8
Pel_Muntin_AS
100
AcDbPolyline
 90
        4
 70
     1
 43
0.0
 10
10.40549999999996
 20
53.84980000000002
 10
4.625
 20
53.84980000000002
 10
4.625
 20
42.20060000000001
 10
10.40549999999996
 20
42.20060000000001
  0
LWPOLYLINE
  5
290AD
330
2908E
100
AcDbEntity
  8
Pel_Muntin_AS
100
AcDbPolyline
 90
        4
 70
     1
 43
0.0
 10
23.71849999999995
 20
53.84978999999998
 10
17.93799999999999
 20
53.84978999999998
 10
17.93799999999999
 20
42.20060000000001
 10
23.71849999999995
 20
42.20060000000001
  0
LWPOLYLINE
  5
290AE
330
2908E
100
AcDbEntity
  8
Pel_Muntin_AS
100
AcDbPolyline
 90
        4
 70
     1
 43
0.0
 10
30.375
 20
53.84978999999998
 10
24.59450000000004
 20
53.84978999999998
 10
24.59450000000004
 20
42.20060000000001
 10
30.375
 20
42.20060000000001
  0
LWPOLYLINE
  5
29E26
330
2908E
100
AcDbEntity
  8
Pel_Hinging
 48
6.0
100
AcDbPolyline
 90
        5
 70
     0
 43
0.0
 10
1.625
 20
69.375
 10
17.5
 20
1.625
 10
33.375
 20
69.375
 10
1.625
 20
35.5
 10
33.375
 20
1.625
  0
ENDBLK
  5
290B2
330
2908E
100
AcDbEntity
  8
0
100
AcDbBlockEnd
  0
BLOCK
  5
290CA
330
290B4
100
AcDbEntity
  8
0
100
AcDbBlockBegin
  2
ASPCICM2971T
 70
     0
 10
0.0
 20
0.0
 30
0.0
  3
ASPCICM2971T
  1

  0
LWPOLYLINE
  5
290B5
330
290B4
100
AcDbEntity
  8
Pel_Frame_Outside
100
AcDbPolyline
 90
        4
 70
     1
 43
0.0
 10
0.0
 20
0.0
 10
29.0
 20
0.0
 10
29.0
 20
71.0
 10
0.0
 20
71.0
  0
LWPOLYLINE
  5
290B6
330
290B4
100
AcDbEntity
  8
Pel_Sash_Outside
100
AcDbPolyline
 90
        4
 70
     1
 43
0.0
 10
1.625
 20
69.375
 10
27.375
 20
69.375
 10
27.375
 20
1.625
 10
1.625
 20
1.625
  0
LWPOLYLINE
  5
290B7
330
290B4
100
AcDbEntity
  8
Pel_Sash_Inside
100
AcDbPolyline
 90
        4
 70
     1
 43
0.0
 10
24.375
 20
66.375
 10
24.375
 20
4.625
 10
4.625
 20
4.625
 10
4.625
 20
66.375
  0
LWPOLYLINE
  5
290B9
330
290B4
100
AcDbEntity
  8
Pel_Muntin_AS
100
AcDbPolyline
 90
        4
 70
     1
 43
0.0
 10
17.49966999999998
 20
16.2742
 10
11.50033000000002
 20
16.2742
 10
11.50033000000002
 20
4.625
 10
17.49966999999998
 20
4.625
  0
LWPOLYLINE
  5
290BA
330
290B4
100
AcDbEntity
  8
Pel_Muntin_AS
100
AcDbPolyline
 90
        4
 70
     1
 43
0.0
 10
10.62432999999998
 20
16.2742
 10
4.625
 20
16.2742
 10
4.625
 20
4.625
 10
10.62432999999998
 20
4.625
  0
LWPOLYLINE
  5
290BB
330
290B4
100
AcDbEntity
  8
Pel_Muntin_AS
100
AcDbPolyline
 90
        4
 70
     1
 43
0.0
 10
17.49966999999998
 20
28.79939999999999
 10
11.50033000000002
 20
28.79939999999999
 10
11.50033000000002
 20
17.15020000000001
 10
17.49966999999998
 20
17.15020000000001
  0
LWPOLYLINE
  5
290BC
330
290B4
100
AcDbEntity
  8
Pel_Muntin_AS
100
AcDbPolyline
 90
        4
 70
     1
 43
0.0
 10
10.62432999999998
 20
28.79939999999999
 10
4.625
 20
28.79939999999999
 10
4.625
 20
17.15020000000001
 10
10.62432999999998
 20
17.15020000000001
  0
LWPOLYLINE
  5
290BD
330
290B4
100
AcDbEntity
  8
Pel_Muntin_AS
100
AcDbPolyline
 90
        4
 70
     1
 43
0.0
 10
24.37500999999997
 20
16.2742
 10
18.37567000000001
 20
16.2742
 10
18.37567000000001
 20
4.625
 10
24.37500999999997
 20
4.625
  0
LWPOLYLINE
  5
290BE
330
290B4
100
AcDbEntity
  8
Pel_Muntin_AS
100
AcDbPolyline
 90
        4
 70
     1
 43
0.0
 10
24.37500999999997
 20
28.79938999999999
 10
18.37567000000001
 20
28.79938999999999
 10
18.37567000000001
 20
17.15020000000001
 10
24.37500999999997
 20
17.15020000000001
  0
LWPOLYLINE
  5
290BF
330
290B4
100
AcDbEntity
  8
Pel_Muntin_AS
100
AcDbPolyline
 90
        4
 70
     1
 43
0.0
 10
24.37500999999997
 20
66.375
 10
18.37567000000001
 20
66.375
 10
18.37567000000001
 20
54.72579999999999
 10
24.37500999999997
 20
54.72579999999999
  0
LWPOLYLINE
  5
290C0
330
290B4
100
AcDbEntity
  8
Pel_Muntin_AS
100
AcDbPolyline
 90
        4
 70
     1
 43
0.0
 10
17.49966999999998
 20
66.375
 10
11.50033000000002
 20
66.375
 10
11.50033000000002
 20
54.72579999999999
 10
17.49966999999998
 20
54.72579999999999
  0
LWPOLYLINE
  5
290C1
330
290B4
100
AcDbEntity
  8
Pel_Muntin_AS
100
AcDbPolyline
 90
        4
 70
     1
 43
0.0
 10
10.62434000000002
 20
66.375
 10
4.625
 20
66.375
 10
4.625
 20
54.72579999999999
 10
10.62434000000002
 20
54.72579999999999
  0
LWPOLYLINE
  5
290C2
330
290B4
100
AcDbEntity
  8
Pel_Muntin_AS
100
AcDbPolyline
 90
        4
 70
     1
 43
0.0
 10
17.49966999999998
 20
41.32459999999997
 10
11.50033000000002
 20
41.32459999999997
 10
11.50033000000002
 20
29.67538999999999
 10
17.49966999999998
 20
29.67538999999999
  0
LWPOLYLINE
  5
290C3
330
290B4
100
AcDbEntity
  8
Pel_Muntin_AS
100
AcDbPolyline
 90
        4
 70
     1
 43
0.0
 10
10.62432999999998
 20
41.32459999999997
 10
4.625
 20
41.32459999999997
 10
4.625
 20
29.67538999999999
 10
10.62432999999998
 20
29.67538999999999
  0
LWPOLYLINE
  5
290C4
330
290B4
100
AcDbEntity
  8
Pel_Muntin_AS
100
AcDbPolyline
 90
        4
 70
     1
 43
0.0
 10
24.37500999999997
 20
41.32458999999999
 10
18.37567000000001
 20
41.32458999999999
 10
18.37567000000001
 20
29.67538999999999
 10
24.37500999999997
 20
29.67538999999999
  0
LWPOLYLINE
  5
290C5
330
290B4
100
AcDbEntity
  8
Pel_Muntin_AS
100
AcDbPolyline
 90
        4
 70
     1
 43
0.0
 10
17.49966999999998
 20
53.84980999999999
 10
11.50033000000002
 20
53.84980999999999
 10
11.50033000000002
 20
42.20060000000001
 10
17.49966999999998
 20
42.20060000000001
  0
LWPOLYLINE
  5
290C6
330
290B4
100
AcDbEntity
  8
Pel_Muntin_AS
100
AcDbPolyline
 90
        4
 70
     1
 43
0.0
 10
10.62432999999998
 20
53.84980999999999
 10
4.625
 20
53.84980999999999
 10
4.625
 20
42.20060000000001
 10
10.62432999999998
 20
42.20060000000001
  0
LWPOLYLINE
  5
290C7
330
290B4
100
AcDbEntity
  8
Pel_Muntin_AS
100
AcDbPolyline
 90
        4
 70
     1
 43
0.0
 10
24.37500999999997
 20
53.84980000000002
 10
18.37567000000001
 20
53.84980000000002
 10
18.37567000000001
 20
42.20060000000001
 10
24.37500999999997
 20
42.20060000000001
  0
LWPOLYLINE
  5
29E5B
330
290B4
100
AcDbEntity
  8
Pel_Hinging
 48
6.0
100
AcDbPolyline
 90
        5
 70
     0
 43
0.0
 10
1.625
 20
69.375
 10
14.5
 20
1.625
 10
27.375
 20
69.375
 10
1.625
 20
35.5
 10
27.375
 20
1.625
  0
ENDBLK
  5
290CB
330
290B4
100
AcDbEntity
  8
0
100
AcDbBlockEnd
  0
BLOCK
  5
290F0
330
290CD
100
AcDbEntity
  8
0
100
AcDbBlockBegin
  2
ASPCICM3565T
 70
     0
 10
0.0
 20
0.0
 30
0.0
  3
ASPCICM3565T
  1

  0
LWPOLYLINE
  5
290CE
330
290CD
100
AcDbEntity
  8
Pel_Frame_Outside
100
AcDbPolyline
 90
        4
 70
     1
 43
0.0
 10
0.0
 20
0.0
 10
35.0
 20
0.0
 10
35.0
 20
65.0
 10
0.0
 20
65.0
  0
LWPOLYLINE
  5
290CF
330
290CD
100
AcDbEntity
  8
Pel_Sash_Outside
100
AcDbPolyline
 90
        4
 70
     1
 43
0.0
 10
1.625
 20
63.375
 10
33.375
 20
63.375
 10
33.375
 20
1.625
 10
1.625
 20
1.625
  0
LWPOLYLINE
  5
290D0
330
290CD
100
AcDbEntity
  8
Pel_Sash_Inside
100
AcDbPolyline
 90
        4
 70
     1
 43
0.0
 10
30.375
 20
60.375
 10
30.375
 20
4.625
 10
4.625
 20
4.625
 10
4.625
 20
60.375
  0
LWPOLYLINE
  5
290D2
330
290CD
100
AcDbEntity
  8
Pel_Muntin_AS
100
AcDbPolyline
 90
        4
 70
     1
 43
0.0
 10
17.06200000000001
 20
15.07420000000002
 10
11.28150000000005
 20
15.07420000000002
 10
11.28150000000005
 20
4.625
 10
17.06200000000001
 20
4.625
  0
LWPOLYLINE
  5
290D3
330
290CD
100
AcDbEntity
  8
Pel_Muntin_AS
100
AcDbPolyline
 90
        4
 70
     1
 43
0.0
 10
10.40549999999996
 20
15.07420000000002
 10
4.625
 20
15.07420000000002
 10
4.625
 20
4.625
 10
10.40549999999996
 20
4.625
  0
LWPOLYLINE
  5
290D4
330
290CD
100
AcDbEntity
  8
Pel_Muntin_AS
100
AcDbPolyline
 90
        4
 70
     1
 43
0.0
 10
17.06200000000001
 20
26.39940999999999
 10
11.28150000000005
 20
26.39940999999999
 10
11.28150000000005
 20
15.95019999999999
 10
17.06200000000001
 20
15.95019999999999
  0
LWPOLYLINE
  5
290D5
330
290CD
100
AcDbEntity
  8
Pel_Muntin_AS
100
AcDbPolyline
 90
        4
 70
     1
 43
0.0
 10
10.40549999999996
 20
26.39940999999999
 10
4.625
 20
26.39940999999999
 10
4.625
 20
15.95019999999999
 10
10.40549999999996
 20
15.95019999999999
  0
LWPOLYLINE
  5
290D6
330
290CD
100
AcDbEntity
  8
Pel_Muntin_AS
100
AcDbPolyline
 90
        4
 70
     1
 43
0.0
 10
23.71849999999995
 20
15.07420000000002
 10
17.93799999999999
 20
15.07420000000002
 10
17.93799999999999
 20
4.625
 10
23.71849999999995
 20
4.625
  0
LWPOLYLINE
  5
290D7
330
290CD
100
AcDbEntity
  8
Pel_Muntin_AS
100
AcDbPolyline
 90
        4
 70
     1
 43
0.0
 10
23.71849999999995
 20
26.39940000000001
 10
17.93799999999999
 20
26.39940000000001
 10
17.93799999999999
 20
15.95019999999999
 10
23.71849999999995
 20
15.95019999999999
  0
LWPOLYLINE
  5
290D8
330
290CD
100
AcDbEntity
  8
Pel_Muntin_AS
100
AcDbPolyline
 90
        4
 70
     1
 43
0.0
 10
17.06200000000001
 20
60.375
 10
11.28150000000005
 20
60.375
 10
11.28150000000005
 20
49.92579999999998
 10
17.06200000000001
 20
49.92579999999998
  0
LWPOLYLINE
  5
290D9
330
290CD
100
AcDbEntity
  8
Pel_Muntin_AS
100
AcDbPolyline
 90
        4
 70
     1
 43
0.0
 10
10.40549999999996
 20
60.375
 10
4.625
 20
60.375
 10
4.625
 20
49.92579999999998
 10
10.40549999999996
 20
49.92579999999998
  0
LWPOLYLINE
  5
290DA
330
290CD
100
AcDbEntity
  8
Pel_Muntin_AS
100
AcDbPolyline
 90
        4
 70
     1
 43
0.0
 10
23.71849999999995
 20
60.37499000000003
 10
17.93799999999999
 20
60.37499000000003
 10
17.93799999999999
 20
49.92579999999998
 10
23.71849999999995
 20
49.92579999999998
  0
LWPOLYLINE
  5
290DB
330
290CD
100
AcDbEntity
  8
Pel_Muntin_AS
100
AcDbPolyline
 90
        4
 70
     1
 43
0.0
 10
30.375
 20
15.07420000000002
 10
24.59450000000004
 20
15.07420000000002
 10
24.59450000000004
 20
4.625
 10
30.375
 20
4.625
  0
LWPOLYLINE
  5
290DC
330
290CD
100
AcDbEntity
  8
Pel_Muntin_AS
100
AcDbPolyline
 90
        4
 70
     1
 43
0.0
 10
30.375
 20
26.39940000000001
 10
24.59450000000004
 20
26.39940000000001
 10
24.59450000000004
 20
15.95019999999999
 10
30.375
 20
15.95019999999999
  0
LWPOLYLINE
  5
290DD
330
290CD
100
AcDbEntity
  8
Pel_Muntin_AS
100
AcDbPolyline
 90
        4
 70
     1
 43
0.0
 10
30.375
 20
60.37499000000003
 10
24.59450000000004
 20
60.37499000000003
 10
24.59450000000004
 20
49.92579999999998
 10
30.375
 20
49.92579999999998
  0
LWPOLYLINE
  5
290DE
330
290CD
100
AcDbEntity
  8
Pel_Muntin_AS
100
AcDbPolyline
 90
        4
 70
     1
 43
0.0
 10
17.06200000000001
 20
37.72460999999998
 10
11.28150000000005
 20
37.72460999999998
 10
11.28150000000005
 20
27.27539999999999
 10
17.06200000000001
 20
27.27539999999999
  0
LWPOLYLINE
  5
290DF
330
290CD
100
AcDbEntity
  8
Pel_Muntin_AS
100
AcDbPolyline
 90
        4
 70
     1
 43
0.0
 10
10.40549999999996
 20
37.72460999999998
 10
4.625
 20
37.72460999999998
 10
4.625
 20
27.27539999999999
 10
10.40549999999996
 20
27.27539999999999
  0
LWPOLYLINE
  5
290E0
330
290CD
100
AcDbEntity
  8
Pel_Muntin_AS
100
AcDbPolyline
 90
        4
 70
     1
 43
0.0
 10
23.71849999999995
 20
37.72460000000001
 10
17.93799999999999
 20
37.72460000000001
 10
17.93799999999999
 20
27.27539999999999
 10
23.71849999999995
 20
27.27539999999999
  0
LWPOLYLINE
  5
290E1
330
290CD
100
AcDbEntity
  8
Pel_Muntin_AS
100
AcDbPolyline
 90
        4
 70
     1
 43
0.0
 10
30.375
 20
37.72460000000001
 10
24.59450000000004
 20
37.72460000000001
 10
24.59450000000004
 20
27.27539999999999
 10
30.375
 20
27.27539999999999
  0
LWPOLYLINE
  5
290E2
330
290CD
100
AcDbEntity
  8
Pel_Muntin_AS
100
AcDbPolyline
 90
        4
 70
     1
 43
0.0
 10
17.06200000000001
 20
60.375
 10
11.28150000000005
 20
60.375
 10
11.28150000000005
 20
49.92579999999998
 10
17.06200000000001
 20
49.92579999999998
  0
LWPOLYLINE
  5
290E3
330
290CD
100
AcDbEntity
  8
Pel_Muntin_AS
100
AcDbPolyline
 90
        4
 70
     1
 43
0.0
 10
10.40549999999996
 20
60.375
 10
4.625
 20
60.375
 10
4.625
 20
49.92579999999998
 10
10.40549999999996
 20
49.92579999999998
  0
LWPOLYLINE
  5
290E4
330
290CD
100
AcDbEntity
  8
Pel_Muntin_AS
100
AcDbPolyline
 90
        4
 70
     1
 43
0.0
 10
23.71849999999995
 20
60.37499000000003
 10
17.93799999999999
 20
60.37499000000003
 10
17.93799999999999
 20
49.92579999999998
 10
23.71849999999995
 20
49.92579999999998
  0
LWPOLYLINE
  5
290E5
330
290CD
100
AcDbEntity
  8
Pel_Muntin_AS
100
AcDbPolyline
 90
        4
 70
     1
 43
0.0
 10
30.375
 20
60.37499000000003
 10
24.59450000000004
 20
60.37499000000003
 10
24.59450000000004
 20
49.92579999999998
 10
30.375
 20
49.92579999999998
  0
LWPOLYLINE
  5
290E6
330
290CD
100
AcDbEntity
  8
Pel_Muntin_AS
100
AcDbPolyline
 90
        4
 70
     1
 43
0.0
 10
17.06200000000001
 20
49.04980000000001
 10
11.28150000000005
 20
49.04980000000001
 10
11.28150000000005
 20
38.60059999999999
 10
17.06200000000001
 20
38.60059999999999
  0
LWPOLYLINE
  5
290E7
330
290CD
100
AcDbEntity
  8
Pel_Muntin_AS
100
AcDbPolyline
 90
        4
 70
     1
 43
0.0
 10
10.40549999999996
 20
49.04980000000001
 10
4.625
 20
49.04980000000001
 10
4.625
 20
38.60059999999999
 10
10.40549999999996
 20
38.60059999999999
  0
LWPOLYLINE
  5
290E8
330
290CD
100
AcDbEntity
  8
Pel_Muntin_AS
100
AcDbPolyline
 90
        4
 70
     1
 43
0.0
 10
23.71849999999995
 20
49.04978999999997
 10
17.93799999999999
 20
49.04978999999997
 10
17.93799999999999
 20
38.60059999999999
 10
23.71849999999995
 20
38.60059999999999
  0
LWPOLYLINE
  5
290E9
330
290CD
100
AcDbEntity
  8
Pel_Muntin_AS
100
AcDbPolyline
 90
        4
 70
     1
 43
0.0
 10
30.375
 20
49.04978999999997
 10
24.59450000000004
 20
49.04978999999997
 10
24.59450000000004
 20
38.60059999999999
 10
30.375
 20
38.60059999999999
  0
LWPOLYLINE
  5
290EA
330
290CD
100
AcDbEntity
  8
Pel_Muntin_AS
100
AcDbPolyline
 90
        4
 70
     1
 43
0.0
 10
17.06200000000001
 20
49.04980000000001
 10
11.28150000000005
 20
49.04980000000001
 10
11.28150000000005
 20
38.60059999999999
 10
17.06200000000001
 20
38.60059999999999
  0
LWPOLYLINE
  5
290EB
330
290CD
100
AcDbEntity
  8
Pel_Muntin_AS
100
AcDbPolyline
 90
        4
 70
     1
 43
0.0
 10
10.40549999999996
 20
49.04980000000001
 10
4.625
 20
49.04980000000001
 10
4.625
 20
38.60059999999999
 10
10.40549999999996
 20
38.60059999999999
  0
LWPOLYLINE
  5
290EC
330
290CD
100
AcDbEntity
  8
Pel_Muntin_AS
100
AcDbPolyline
 90
        4
 70
     1
 43
0.0
 10
23.71849999999995
 20
49.04979000000003
 10
17.93799999999999
 20
49.04979000000003
 10
17.93799999999999
 20
38.60059999999999
 10
23.71849999999995
 20
38.60059999999999
  0
LWPOLYLINE
  5
290ED
330
290CD
100
AcDbEntity
  8
Pel_Muntin_AS
100
AcDbPolyline
 90
        4
 70
     1
 43
0.0
 10
30.375
 20
49.04979000000003
 10
24.59450000000004
 20
49.04979000000003
 10
24.59450000000004
 20
38.60059999999999
 10
30.375
 20
38.60059999999999
  0
LWPOLYLINE
  5
29DE4
330
290CD
100
AcDbEntity
  8
Pel_Hinging
 48
6.0
100
AcDbPolyline
 90
        5
 70
     0
 43
0.0
 10
4.625
 20
60.375
 10
17.5
 20
1.625
 10
33.375
 20
63.375
 10
1.625
 20
32.5
 10
33.375
 20
1.625
  0
ENDBLK
  5
290F1
330
290CD
100
AcDbEntity
  8
0
100
AcDbBlockEnd
  0
BLOCK
  5
29109
330
290F3
100
AcDbEntity
  8
0
100
AcDbBlockBegin
  2
ASPCICM2965T
 70
     0
 10
0.0
 20
0.0
 30
0.0
  3
ASPCICM2965T
  1

  0
LWPOLYLINE
  5
290F4
330
290F3
100
AcDbEntity
  8
Pel_Frame_Outside
100
AcDbPolyline
 90
        4
 70
     1
 43
0.0
 10
0.0
 20
0.0
 10
29.0
 20
0.0
 10
29.0
 20
65.0
 10
0.0
 20
65.0
  0
LWPOLYLINE
  5
290F5
330
290F3
100
AcDbEntity
  8
Pel_Sash_Outside
100
AcDbPolyline
 90
        4
 70
     1
 43
0.0
 10
1.625
 20
63.375
 10
27.375
 20
63.375
 10
27.375
 20
1.625
 10
1.625
 20
1.625
  0
LWPOLYLINE
  5
290F6
330
290F3
100
AcDbEntity
  8
Pel_Sash_Inside
100
AcDbPolyline
 90
        4
 70
     1
 43
0.0
 10
24.375
 20
60.375
 10
24.375
 20
4.625
 10
4.625
 20
4.625
 10
4.625
 20
60.375
  0
LWPOLYLINE
  5
290F8
330
290F3
100
AcDbEntity
  8
Pel_Muntin_AS
100
AcDbPolyline
 90
        4
 70
     1
 43
0.0
 10
17.49966999999998
 20
15.07420000000002
 10
11.50033000000002
 20
15.07420000000002
 10
11.50033000000002
 20
4.625
 10
17.49966999999998
 20
4.625
  0
LWPOLYLINE
  5
290F9
330
290F3
100
AcDbEntity
  8
Pel_Muntin_AS
100
AcDbPolyline
 90
        4
 70
     1
 43
0.0
 10
10.62432999999998
 20
15.07420000000002
 10
4.625
 20
15.07420000000002
 10
4.625
 20
4.625
 10
10.62432999999998
 20
4.625
  0
LWPOLYLINE
  5
290FA
330
290F3
100
AcDbEntity
  8
Pel_Muntin_AS
100
AcDbPolyline
 90
        4
 70
     1
 43
0.0
 10
17.49966999999998
 20
26.39940000000001
 10
11.50033000000002
 20
26.39940000000001
 10
11.50033000000002
 20
15.95019999999999
 10
17.49966999999998
 20
15.95019999999999
  0
LWPOLYLINE
  5
290FB
330
290F3
100
AcDbEntity
  8
Pel_Muntin_AS
100
AcDbPolyline
 90
        4
 70
     1
 43
0.0
 10
10.62432999999998
 20
26.39940000000001
 10
4.625
 20
26.39940000000001
 10
4.625
 20
15.95019999999999
 10
10.62432999999998
 20
15.95019999999999
  0
LWPOLYLINE
  5
290FC
330
290F3
100
AcDbEntity
  8
Pel_Muntin_AS
100
AcDbPolyline
 90
        4
 70
     1
 43
0.0
 10
24.37500999999997
 20
15.07420000000002
 10
18.37567000000001
 20
15.07420000000002
 10
18.37567000000001
 20
4.625
 10
24.37500999999997
 20
4.625
  0
LWPOLYLINE
  5
290FD
330
290F3
100
AcDbEntity
  8
Pel_Muntin_AS
100
AcDbPolyline
 90
        4
 70
     1
 43
0.0
 10
24.37500999999997
 20
26.39938999999998
 10
18.37567000000001
 20
26.39938999999998
 10
18.37567000000001
 20
15.95019999999999
 10
24.37500999999997
 20
15.95019999999999
  0
LWPOLYLINE
  5
290FE
330
290F3
100
AcDbEntity
  8
Pel_Muntin_AS
100
AcDbPolyline
 90
        4
 70
     1
 43
0.0
 10
24.37500999999997
 20
60.375
 10
18.37567000000001
 20
60.375
 10
18.37567000000001
 20
49.92579999999998
 10
24.37500999999997
 20
49.92579999999998
  0
LWPOLYLINE
  5
290FF
330
290F3
100
AcDbEntity
  8
Pel_Muntin_AS
100
AcDbPolyline
 90
        4
 70
     1
 43
0.0
 10
17.49966999999998
 20
60.375
 10
11.50033000000002
 20
60.375
 10
11.50033000000002
 20
49.92579999999998
 10
17.49966999999998
 20
49.92579999999998
  0
LWPOLYLINE
  5
29100
330
290F3
100
AcDbEntity
  8
Pel_Muntin_AS
100
AcDbPolyline
 90
        4
 70
     1
 43
0.0
 10
10.62434000000002
 20
60.375
 10
4.625
 20
60.375
 10
4.625
 20
49.92579999999998
 10
10.62434000000002
 20
49.92579999999998
  0
LWPOLYLINE
  5
29101
330
290F3
100
AcDbEntity
  8
Pel_Muntin_AS
100
AcDbPolyline
 90
        4
 70
     1
 43
0.0
 10
17.49966999999998
 20
37.72460000000001
 10
11.50033000000002
 20
37.72460000000001
 10
11.50033000000002
 20
27.27539000000002
 10
17.49966999999998
 20
27.27539000000002
  0
LWPOLYLINE
  5
29102
330
290F3
100
AcDbEntity
  8
Pel_Muntin_AS
100
AcDbPolyline
 90
        4
 70
     1
 43
0.0
 10
10.62432999999998
 20
37.72460000000001
 10
4.625
 20
37.72460000000001
 10
4.625
 20
27.27539000000002
 10
10.62432999999998
 20
27.27539000000002
  0
LWPOLYLINE
  5
29103
330
290F3
100
AcDbEntity
  8
Pel_Muntin_AS
100
AcDbPolyline
 90
        4
 70
     1
 43
0.0
 10
24.37500999999997
 20
37.72459000000004
 10
18.37567000000001
 20
37.72459000000004
 10
18.37567000000001
 20
27.27539000000002
 10
24.37500999999997
 20
27.27539000000002
  0
LWPOLYLINE
  5
29104
330
290F3
100
AcDbEntity
  8
Pel_Muntin_AS
100
AcDbPolyline
 90
        4
 70
     1
 43
0.0
 10
17.49966999999998
 20
49.04980999999998
 10
11.50033000000002
 20
49.04980999999998
 10
11.50033000000002
 20
38.60059999999999
 10
17.49966999999998
 20
38.60059999999999
  0
LWPOLYLINE
  5
29105
330
290F3
100
AcDbEntity
  8
Pel_Muntin_AS
100
AcDbPolyline
 90
        4
 70
     1
 43
0.0
 10
10.62432999999998
 20
49.04980999999998
 10
4.625
 20
49.04980999999998
 10
4.625
 20
38.60059999999999
 10
10.62432999999998
 20
38.60059999999999
  0
LWPOLYLINE
  5
29106
330
290F3
100
AcDbEntity
  8
Pel_Muntin_AS
100
AcDbPolyline
 90
        4
 70
     1
 43
0.0
 10
24.37500999999997
 20
49.04980000000001
 10
18.37567000000001
 20
49.04980000000001
 10
18.37567000000001
 20
38.60059999999999
 10
24.37500999999997
 20
38.60059999999999
  0
LWPOLYLINE
  5
29DAF
330
290F3
100
AcDbEntity
  8
Pel_Hinging
 48
6.0
100
AcDbPolyline
 90
        5
 70
     0
 43
0.0
 10
1.625
 20
63.375
 10
14.5
 20
1.625
 10
27.375
 20
63.375
 10
1.625
 20
32.5
 10
27.375
 20
1.625
  0
ENDBLK
  5
2910A
330
290F3
100
AcDbEntity
  8
0
100
AcDbBlockEnd
  0
BLOCK
  5
29127
330
2910C
100
AcDbEntity
  8
0
100
AcDbBlockBegin
  2
ASPCICM3559T
 70
     0
 10
0.0
 20
0.0
 30
0.0
  3
ASPCICM3559T
  1

  0
LWPOLYLINE
  5
2910D
330
2910C
100
AcDbEntity
  8
Pel_Frame_Outside
100
AcDbPolyline
 90
        4
 70
     1
 43
0.0
 10
0.0
 20
0.0
 10
35.0
 20
0.0
 10
35.0
 20
59.0
 10
0.0
 20
59.0
  0
LWPOLYLINE
  5
2910E
330
2910C
100
AcDbEntity
  8
Pel_Sash_Outside
100
AcDbPolyline
 90
        4
 70
     1
 43
0.0
 10
1.625
 20
57.375
 10
33.375
 20
57.375
 10
33.375
 20
1.625
 10
1.625
 20
1.625
  0
LWPOLYLINE
  5
2910F
330
2910C
100
AcDbEntity
  8
Pel_Sash_Inside
100
AcDbPolyline
 90
        4
 70
     1
 43
0.0
 10
30.375
 20
54.375
 10
30.375
 20
4.625
 10
4.625
 20
4.625
 10
4.625
 20
54.375
  0
LWPOLYLINE
  5
29111
330
2910C
100
AcDbEntity
  8
Pel_Muntin_AS
100
AcDbPolyline
 90
        4
 70
     1
 43
0.0
 10
17.06200000000001
 20
16.40550000000002
 10
11.28150000000005
 20
16.40550000000002
 10
11.28150000000005
 20
4.625
 10
17.06200000000001
 20
4.625
  0
LWPOLYLINE
  5
29112
330
2910C
100
AcDbEntity
  8
Pel_Muntin_AS
100
AcDbPolyline
 90
        4
 70
     1
 43
0.0
 10
10.40549999999996
 20
16.40550000000002
 10
4.625
 20
16.40550000000002
 10
4.625
 20
4.625
 10
10.40549999999996
 20
4.625
  0
LWPOLYLINE
  5
29113
330
2910C
100
AcDbEntity
  8
Pel_Muntin_AS
100
AcDbPolyline
 90
        4
 70
     1
 43
0.0
 10
17.06200000000001
 20
29.06200999999999
 10
11.28150000000005
 20
29.06200999999999
 10
11.28150000000005
 20
17.28149999999999
 10
17.06200000000001
 20
17.28149999999999
  0
LWPOLYLINE
  5
29114
330
2910C
100
AcDbEntity
  8
Pel_Muntin_AS
100
AcDbPolyline
 90
        4
 70
     1
 43
0.0
 10
10.40549999999996
 20
29.06200999999999
 10
4.625
 20
29.06200999999999
 10
4.625
 20
17.28149999999999
 10
10.40549999999996
 20
17.28149999999999
  0
LWPOLYLINE
  5
29115
330
2910C
100
AcDbEntity
  8
Pel_Muntin_AS
100
AcDbPolyline
 90
        4
 70
     1
 43
0.0
 10
23.71849999999995
 20
16.40550000000002
 10
17.93799999999999
 20
16.40550000000002
 10
17.93799999999999
 20
4.625
 10
23.71849999999995
 20
4.625
  0
LWPOLYLINE
  5
29116
330
2910C
100
AcDbEntity
  8
Pel_Muntin_AS
100
AcDbPolyline
 90
        4
 70
     1
 43
0.0
 10
23.71849999999995
 20
29.06200000000001
 10
17.93799999999999
 20
29.06200000000001
 10
17.93799999999999
 20
17.28149999999999
 10
23.71849999999995
 20
17.28149999999999
  0
LWPOLYLINE
  5
29117
330
2910C
100
AcDbEntity
  8
Pel_Muntin_AS
100
AcDbPolyline
 90
        4
 70
     1
 43
0.0
 10
17.06200000000001
 20
54.375
 10
11.28150000000005
 20
54.375
 10
11.28150000000005
 20
42.59449999999998
 10
17.06200000000001
 20
42.59449999999998
  0
LWPOLYLINE
  5
29118
330
2910C
100
AcDbEntity
  8
Pel_Muntin_AS
100
AcDbPolyline
 90
        4
 70
     1
 43
0.0
 10
10.40549999999996
 20
54.375
 10
4.625
 20
54.375
 10
4.625
 20
42.59449999999998
 10
10.40549999999996
 20
42.59449999999998
  0
LWPOLYLINE
  5
29119
330
2910C
100
AcDbEntity
  8
Pel_Muntin_AS
100
AcDbPolyline
 90
        4
 70
     1
 43
0.0
 10
23.71849999999995
 20
54.37499000000002
 10
17.93799999999999
 20
54.37499000000002
 10
17.93799999999999
 20
42.59449999999998
 10
23.71849999999995
 20
42.59449999999998
  0
LWPOLYLINE
  5
2911A
330
2910C
100
AcDbEntity
  8
Pel_Muntin_AS
100
AcDbPolyline
 90
        4
 70
     1
 43
0.0
 10
30.375
 20
16.40550000000002
 10
24.59450000000004
 20
16.40550000000002
 10
24.59450000000004
 20
4.625
 10
30.375
 20
4.625
  0
LWPOLYLINE
  5
2911B
330
2910C
100
AcDbEntity
  8
Pel_Muntin_AS
100
AcDbPolyline
 90
        4
 70
     1
 43
0.0
 10
30.375
 20
29.06200000000001
 10
24.59450000000004
 20
29.06200000000001
 10
24.59450000000004
 20
17.28149999999999
 10
30.375
 20
17.28149999999999
  0
LWPOLYLINE
  5
2911C
330
2910C
100
AcDbEntity
  8
Pel_Muntin_AS
100
AcDbPolyline
 90
        4
 70
     1
 43
0.0
 10
30.375
 20
54.37499000000002
 10
24.59450000000004
 20
54.37499000000002
 10
24.59450000000004
 20
42.59449999999998
 10
30.375
 20
42.59449999999998
  0
LWPOLYLINE
  5
2911D
330
2910C
100
AcDbEntity
  8
Pel_Muntin_AS
100
AcDbPolyline
 90
        4
 70
     1
 43
0.0
 10
17.06200000000001
 20
41.7185
 10
11.28150000000005
 20
41.7185
 10
11.28150000000005
 20
29.93799999999999
 10
17.06200000000001
 20
29.93799999999999
  0
LWPOLYLINE
  5
2911E
330
2910C
100
AcDbEntity
  8
Pel_Muntin_AS
100
AcDbPolyline
 90
        4
 70
     1
 43
0.0
 10
10.40549999999996
 20
41.7185
 10
4.625
 20
41.7185
 10
4.625
 20
29.93799999999999
 10
10.40549999999996
 20
29.93799999999999
  0
LWPOLYLINE
  5
2911F
330
2910C
100
AcDbEntity
  8
Pel_Muntin_AS
100
AcDbPolyline
 90
        4
 70
     1
 43
0.0
 10
23.71849999999995
 20
41.71849000000003
 10
17.93799999999999
 20
41.71849000000003
 10
17.93799999999999
 20
29.93799999999999
 10
23.71849999999995
 20
29.93799999999999
  0
LWPOLYLINE
  5
29120
330
2910C
100
AcDbEntity
  8
Pel_Muntin_AS
100
AcDbPolyline
 90
        4
 70
     1
 43
0.0
 10
30.375
 20
41.71849000000003
 10
24.59450000000004
 20
41.71849000000003
 10
24.59450000000004
 20
29.93799999999999
 10
30.375
 20
29.93799999999999
  0
LWPOLYLINE
  5
29121
330
2910C
100
AcDbEntity
  8
Pel_Muntin_AS
100
AcDbPolyline
 90
        4
 70
     1
 43
0.0
 10
17.06200000000001
 20
54.375
 10
11.28150000000005
 20
54.375
 10
11.28150000000005
 20
42.59449999999998
 10
17.06200000000001
 20
42.59449999999998
  0
LWPOLYLINE
  5
29122
330
2910C
100
AcDbEntity
  8
Pel_Muntin_AS
100
AcDbPolyline
 90
        4
 70
     1
 43
0.0
 10
10.40549999999996
 20
54.375
 10
4.625
 20
54.375
 10
4.625
 20
42.59449999999998
 10
10.40549999999996
 20
42.59449999999998
  0
LWPOLYLINE
  5
29123
330
2910C
100
AcDbEntity
  8
Pel_Muntin_AS
100
AcDbPolyline
 90
        4
 70
     1
 43
0.0
 10
23.71849999999995
 20
54.37499000000002
 10
17.93799999999999
 20
54.37499000000002
 10
17.93799999999999
 20
42.59449999999998
 10
23.71849999999995
 20
42.59449999999998
  0
LWPOLYLINE
  5
29124
330
2910C
100
AcDbEntity
  8
Pel_Muntin_AS
100
AcDbPolyline
 90
        4
 70
     1
 43
0.0
 10
30.375
 20
54.37499000000002
 10
24.59450000000004
 20
54.37499000000002
 10
24.59450000000004
 20
42.59449999999998
 10
30.375
 20
42.59449999999998
  0
LWPOLYLINE
  5
29C97
330
2910C
100
AcDbEntity
  8
Pel_Hinging
 48
6.0
100
AcDbPolyline
 90
        5
 70
     0
 43
0.0
 10
1.625
 20
57.375
 10
17.5
 20
1.625
 10
33.375
 20
57.375
 10
1.625
 20
29.5
 10
33.375
 20
1.625
  0
ENDBLK
  5
29128
330
2910C
100
AcDbEntity
  8
0
100
AcDbBlockEnd
  0
BLOCK
  5
2913D
330
2912A
100
AcDbEntity
  8
0
100
AcDbBlockBegin
  2
ASPCICM2959T
 70
     0
 10
0.0
 20
0.0
 30
0.0
  3
ASPCICM2959T
  1

  0
LWPOLYLINE
  5
2912B
330
2912A
100
AcDbEntity
  8
Pel_Frame_Outside
100
AcDbPolyline
 90
        4
 70
     1
 43
0.0
 10
0.0
 20
0.0
 10
29.0
 20
0.0
 10
29.0
 20
59.0
 10
0.0
 20
59.0
  0
LWPOLYLINE
  5
2912C
330
2912A
100
AcDbEntity
  8
Pel_Sash_Outside
100
AcDbPolyline
 90
        4
 70
     1
 43
0.0
 10
1.625
 20
57.375
 10
27.375
 20
57.375
 10
27.375
 20
1.625
 10
1.625
 20
1.625
  0
LWPOLYLINE
  5
2912D
330
2912A
100
AcDbEntity
  8
Pel_Sash_Inside
100
AcDbPolyline
 90
        4
 70
     1
 43
0.0
 10
24.375
 20
54.375
 10
24.375
 20
4.625
 10
4.625
 20
4.625
 10
4.625
 20
54.375
  0
LWPOLYLINE
  5
2912F
330
2912A
100
AcDbEntity
  8
Pel_Muntin_AS
100
AcDbPolyline
 90
        4
 70
     1
 43
0.0
 10
17.49966999999998
 20
16.40550000000002
 10
11.50033000000002
 20
16.40550000000002
 10
11.50033000000002
 20
4.625
 10
17.49966999999998
 20
4.625
  0
LWPOLYLINE
  5
29130
330
2912A
100
AcDbEntity
  8
Pel_Muntin_AS
100
AcDbPolyline
 90
        4
 70
     1
 43
0.0
 10
10.62432999999998
 20
16.40550000000002
 10
4.625
 20
16.40550000000002
 10
4.625
 20
4.625
 10
10.62432999999998
 20
4.625
  0
LWPOLYLINE
  5
29131
330
2912A
100
AcDbEntity
  8
Pel_Muntin_AS
100
AcDbPolyline
 90
        4
 70
     1
 43
0.0
 10
17.49966
 20
29.06200000000001
 10
11.50031999999999
 20
29.06200000000001
 10
11.50033000000002
 20
17.28149999999999
 10
17.49966999999998
 20
17.28149999999999
  0
LWPOLYLINE
  5
29132
330
2912A
100
AcDbEntity
  8
Pel_Muntin_AS
100
AcDbPolyline
 90
        4
 70
     1
 43
0.0
 10
10.62432000000001
 20
29.06200000000001
 10
4.624990000000025
 20
29.06200000000001
 10
4.625
 20
17.28149999999999
 10
10.62432999999998
 20
17.28149999999999
  0
LWPOLYLINE
  5
29133
330
2912A
100
AcDbEntity
  8
Pel_Muntin_AS
100
AcDbPolyline
 90
        4
 70
     1
 43
0.0
 10
24.37500999999997
 20
16.40550000000002
 10
18.37567000000001
 20
16.40550000000002
 10
18.37567000000001
 20
4.625
 10
24.37500999999997
 20
4.625
  0
LWPOLYLINE
  5
29134
330
2912A
100
AcDbEntity
  8
Pel_Muntin_AS
100
AcDbPolyline
 90
        4
 70
     1
 43
0.0
 10
24.375
 20
29.06198999999998
 10
18.37565999999998
 20
29.06198999999998
 10
18.37567000000001
 20
17.28149999999999
 10
24.37500999999997
 20
17.28149999999999
  0
LWPOLYLINE
  5
29135
330
2912A
100
AcDbEntity
  8
Pel_Muntin_AS
100
AcDbPolyline
 90
        4
 70
     1
 43
0.0
 10
24.37500999999997
 20
54.375
 10
18.37567000000001
 20
54.375
 10
18.37567000000001
 20
42.59449
 10
24.37500999999997
 20
42.59449
  0
LWPOLYLINE
  5
29136
330
2912A
100
AcDbEntity
  8
Pel_Muntin_AS
100
AcDbPolyline
 90
        4
 70
     1
 43
0.0
 10
17.49966999999998
 20
54.375
 10
11.50033000000002
 20
54.375
 10
11.50033000000002
 20
42.59449
 10
17.49966999999998
 20
42.59449
  0
LWPOLYLINE
  5
29137
330
2912A
100
AcDbEntity
  8
Pel_Muntin_AS
100
AcDbPolyline
 90
        4
 70
     1
 43
0.0
 10
10.62434000000002
 20
54.375
 10
4.625
 20
54.375
 10
4.625
 20
42.59449
 10
10.62434000000002
 20
42.59449
  0
LWPOLYLINE
  5
29138
330
2912A
100
AcDbEntity
  8
Pel_Muntin_AS
100
AcDbPolyline
 90
        4
 70
     1
 43
0.0
 10
17.49966999999998
 20
41.7185
 10
11.50033000000002
 20
41.7185
 10
11.50031999999999
 20
29.93799000000001
 10
17.49966
 20
29.93799000000001
  0
LWPOLYLINE
  5
29139
330
2912A
100
AcDbEntity
  8
Pel_Muntin_AS
100
AcDbPolyline
 90
        4
 70
     1
 43
0.0
 10
10.62432999999998
 20
41.7185
 10
4.625
 20
41.7185
 10
4.624990000000025
 20
29.93799000000001
 10
10.62432000000001
 20
29.93799000000001
  0
LWPOLYLINE
  5
2913A
330
2912A
100
AcDbEntity
  8
Pel_Muntin_AS
100
AcDbPolyline
 90
        4
 70
     1
 43
0.0
 10
24.37500999999997
 20
41.71848999999997
 10
18.37567000000001
 20
41.71848999999997
 10
18.37565999999998
 20
29.93799000000001
 10
24.375
 20
29.93799000000001
  0
LWPOLYLINE
  5
29CB9
330
2912A
100
AcDbEntity
  8
Pel_Hinging
 48
6.0
100
AcDbPolyline
 90
        5
 70
     0
 43
0.0
 10
1.625
 20
57.375
 10
14.5
 20
1.625
 10
27.375
 20
57.375
 10
1.625
 20
29.5
 10
27.375
 20
1.625
  0
ENDBLK
  5
2913E
330
2912A
100
AcDbEntity
  8
0
100
AcDbBlockEnd
  0
BLOCK
  5
29157
330
29140
100
AcDbEntity
  8
0
100
AcDbBlockBegin
  2
ASPCICM3553T
 70
     0
 10
0.0
 20
0.0
 30
0.0
  3
ASPCICM3553T
  1

  0
LWPOLYLINE
  5
29141
330
29140
100
AcDbEntity
  8
Pel_Frame_Outside
100
AcDbPolyline
 90
        4
 70
     1
 43
0.0
 10
0.0
 20
0.0
 10
35.0
 20
0.0
 10
35.0
 20
53.0
 10
0.0
 20
53.0
  0
LWPOLYLINE
  5
29142
330
29140
100
AcDbEntity
  8
Pel_Sash_Outside
100
AcDbPolyline
 90
        4
 70
     1
 43
0.0
 10
1.625
 20
51.375
 10
33.375
 20
51.375
 10
33.375
 20
1.625
 10
1.625
 20
1.625
  0
LWPOLYLINE
  5
29143
330
29140
100
AcDbEntity
  8
Pel_Sash_Inside
100
AcDbPolyline
 90
        4
 70
     1
 43
0.0
 10
30.375
 20
48.375
 10
30.375
 20
4.625
 10
4.625
 20
4.625
 10
4.625
 20
48.375
  0
LWPOLYLINE
  5
29145
330
29140
100
AcDbEntity
  8
Pel_Muntin_AS
100
AcDbPolyline
 90
        4
 70
     1
 43
0.0
 10
17.06200000000001
 20
14.90550000000002
 10
11.28150000000005
 20
14.90550000000002
 10
11.28150000000005
 20
4.625
 10
17.06200000000001
 20
4.625
  0
LWPOLYLINE
  5
29146
330
29140
100
AcDbEntity
  8
Pel_Muntin_AS
100
AcDbPolyline
 90
        4
 70
     1
 43
0.0
 10
10.40549999999996
 20
14.90550000000002
 10
4.625
 20
14.90550000000002
 10
4.625
 20
4.625
 10
10.40549999999996
 20
4.625
  0
LWPOLYLINE
  5
29147
330
29140
100
AcDbEntity
  8
Pel_Muntin_AS
100
AcDbPolyline
 90
        4
 70
     1
 43
0.0
 10
17.06200000000001
 20
26.06200999999999
 10
11.28150000000005
 20
26.06200999999999
 10
11.28150000000005
 20
15.78149999999999
 10
17.06200000000001
 20
15.78149999999999
  0
LWPOLYLINE
  5
29148
330
29140
100
AcDbEntity
  8
Pel_Muntin_AS
100
AcDbPolyline
 90
        4
 70
     1
 43
0.0
 10
10.40549999999996
 20
26.06200999999999
 10
4.625
 20
26.06200999999999
 10
4.625
 20
15.78149999999999
 10
10.40549999999996
 20
15.78149999999999
  0
LWPOLYLINE
  5
29149
330
29140
100
AcDbEntity
  8
Pel_Muntin_AS
100
AcDbPolyline
 90
        4
 70
     1
 43
0.0
 10
23.71849999999995
 20
14.90550000000002
 10
17.93799999999999
 20
14.90550000000002
 10
17.93799999999999
 20
4.625
 10
23.71849999999995
 20
4.625
  0
LWPOLYLINE
  5
2914A
330
29140
100
AcDbEntity
  8
Pel_Muntin_AS
100
AcDbPolyline
 90
        4
 70
     1
 43
0.0
 10
23.71849999999995
 20
26.06200000000001
 10
17.93799999999999
 20
26.06200000000001
 10
17.93799999999999
 20
15.78149999999999
 10
23.71849999999995
 20
15.78149999999999
  0
LWPOLYLINE
  5
2914B
330
29140
100
AcDbEntity
  8
Pel_Muntin_AS
100
AcDbPolyline
 90
        4
 70
     1
 43
0.0
 10
17.06200000000001
 20
48.375
 10
11.28150000000005
 20
48.375
 10
11.28150000000005
 20
38.09450000000004
 10
17.06200000000001
 20
38.09450000000004
  0
LWPOLYLINE
  5
2914C
330
29140
100
AcDbEntity
  8
Pel_Muntin_AS
100
AcDbPolyline
 90
        4
 70
     1
 43
0.0
 10
10.40549999999996
 20
48.375
 10
4.625
 20
48.375
 10
4.625
 20
38.09450000000004
 10
10.40549999999996
 20
38.09450000000004
  0
LWPOLYLINE
  5
2914D
330
29140
100
AcDbEntity
  8
Pel_Muntin_AS
100
AcDbPolyline
 90
        4
 70
     1
 43
0.0
 10
23.71849999999995
 20
48.37499000000002
 10
17.93799999999999
 20
48.37499000000002
 10
17.93799999999999
 20
38.09450000000004
 10
23.71849999999995
 20
38.09450000000004
  0
LWPOLYLINE
  5
2914E
330
29140
100
AcDbEntity
  8
Pel_Muntin_AS
100
AcDbPolyline
 90
        4
 70
     1
 43
0.0
 10
30.375
 20
14.90550000000002
 10
24.59450000000004
 20
14.90550000000002
 10
24.59450000000004
 20
4.625
 10
30.375
 20
4.625
  0
LWPOLYLINE
  5
2914F
330
29140
100
AcDbEntity
  8
Pel_Muntin_AS
100
AcDbPolyline
 90
        4
 70
     1
 43
0.0
 10
30.375
 20
26.06200000000001
 10
24.59450000000004
 20
26.06200000000001
 10
24.59450000000004
 20
15.78149999999999
 10
30.375
 20
15.78149999999999
  0
LWPOLYLINE
  5
29150
330
29140
100
AcDbEntity
  8
Pel_Muntin_AS
100
AcDbPolyline
 90
        4
 70
     1
 43
0.0
 10
30.375
 20
48.37499000000002
 10
24.59450000000004
 20
48.37499000000002
 10
24.59450000000004
 20
38.09450000000004
 10
30.375
 20
38.09450000000004
  0
LWPOLYLINE
  5
29151
330
29140
100
AcDbEntity
  8
Pel_Muntin_AS
100
AcDbPolyline
 90
        4
 70
     1
 43
0.0
 10
17.06200000000001
 20
37.21849999999995
 10
11.28150000000005
 20
37.21849999999995
 10
11.28150000000005
 20
26.93799999999999
 10
17.06200000000001
 20
26.93799999999999
  0
LWPOLYLINE
  5
29152
330
29140
100
AcDbEntity
  8
Pel_Muntin_AS
100
AcDbPolyline
 90
        4
 70
     1
 43
0.0
 10
10.40549999999996
 20
37.21849999999995
 10
4.625
 20
37.21849999999995
 10
4.625
 20
26.93799999999999
 10
10.40549999999996
 20
26.93799999999999
  0
LWPOLYLINE
  5
29153
330
29140
100
AcDbEntity
  8
Pel_Muntin_AS
100
AcDbPolyline
 90
        4
 70
     1
 43
0.0
 10
23.71849999999995
 20
37.21848999999997
 10
17.93799999999999
 20
37.21848999999997
 10
17.93799999999999
 20
26.93799999999999
 10
23.71849999999995
 20
26.93799999999999
  0
LWPOLYLINE
  5
29154
330
29140
100
AcDbEntity
  8
Pel_Muntin_AS
100
AcDbPolyline
 90
        4
 70
     1
 43
0.0
 10
30.375
 20
37.21848999999997
 10
24.59450000000004
 20
37.21848999999997
 10
24.59450000000004
 20
26.93799999999999
 10
30.375
 20
26.93799999999999
  0
LWPOLYLINE
  5
29BDB
330
29140
100
AcDbEntity
  8
Pel_Hinging
 48
6.0
100
AcDbPolyline
 90
        5
 70
     0
 43
0.0
 10
1.625
 20
51.375
 10
17.5
 20
1.625
 10
33.375
 20
51.375
 10
1.625
 20
26.5
 10
33.375
 20
1.625
  0
ENDBLK
  5
29158
330
29140
100
AcDbEntity
  8
0
100
AcDbBlockEnd
  0
BLOCK
  5
2916D
330
2915A
100
AcDbEntity
  8
0
100
AcDbBlockBegin
  2
ASPCICM2953T
 70
     0
 10
0.0
 20
0.0
 30
0.0
  3
ASPCICM2953T
  1

  0
LWPOLYLINE
  5
2915B
330
2915A
100
AcDbEntity
  8
Pel_Frame_Outside
100
AcDbPolyline
 90
        4
 70
     1
 43
0.0
 10
0.0
 20
0.0
 10
29.0
 20
0.0
 10
29.0
 20
53.0
 10
0.0
 20
53.0
  0
LWPOLYLINE
  5
2915C
330
2915A
100
AcDbEntity
  8
Pel_Sash_Outside
100
AcDbPolyline
 90
        4
 70
     1
 43
0.0
 10
1.625
 20
51.375
 10
27.375
 20
51.375
 10
27.375
 20
1.625
 10
1.625
 20
1.625
  0
LWPOLYLINE
  5
2915D
330
2915A
100
AcDbEntity
  8
Pel_Sash_Inside
100
AcDbPolyline
 90
        4
 70
     1
 43
0.0
 10
24.375
 20
48.375
 10
24.375
 20
4.625
 10
4.625
 20
4.625
 10
4.625
 20
48.375
  0
LWPOLYLINE
  5
2915F
330
2915A
100
AcDbEntity
  8
Pel_Muntin_AS
100
AcDbPolyline
 90
        4
 70
     1
 43
0.0
 10
17.49966
 20
14.90550000000002
 10
11.50031999999999
 20
14.90550000000002
 10
11.50033000000002
 20
4.625
 10
17.49966999999998
 20
4.625
  0
LWPOLYLINE
  5
29160
330
2915A
100
AcDbEntity
  8
Pel_Muntin_AS
100
AcDbPolyline
 90
        4
 70
     1
 43
0.0
 10
10.62432000000001
 20
14.90550000000002
 10
4.624990000000025
 20
14.90550000000002
 10
4.625
 20
4.625
 10
10.62432999999998
 20
4.625
  0
LWPOLYLINE
  5
29161
330
2915A
100
AcDbEntity
  8
Pel_Muntin_AS
100
AcDbPolyline
 90
        4
 70
     1
 43
0.0
 10
17.49966
 20
26.06200999999999
 10
11.50031999999999
 20
26.06200999999999
 10
11.50031999999999
 20
15.78149999999999
 10
17.49966
 20
15.78149999999999
  0
LWPOLYLINE
  5
29162
330
2915A
100
AcDbEntity
  8
Pel_Muntin_AS
100
AcDbPolyline
 90
        4
 70
     1
 43
0.0
 10
10.62432000000001
 20
26.06200999999999
 10
4.624990000000025
 20
26.06200999999999
 10
4.624990000000025
 20
15.78149999999999
 10
10.62432000000001
 20
15.78149999999999
  0
LWPOLYLINE
  5
29163
330
2915A
100
AcDbEntity
  8
Pel_Muntin_AS
100
AcDbPolyline
 90
        4
 70
     1
 43
0.0
 10
24.375
 20
14.90550000000002
 10
18.37565999999998
 20
14.90550000000002
 10
18.37567000000001
 20
4.625
 10
24.37500999999997
 20
4.625
  0
LWPOLYLINE
  5
29164
330
2915A
100
AcDbEntity
  8
Pel_Muntin_AS
100
AcDbPolyline
 90
        4
 70
     1
 43
0.0
 10
24.375
 20
26.06200000000001
 10
18.37565999999998
 20
26.06200000000001
 10
18.37565999999998
 20
15.78149999999999
 10
24.375
 20
15.78149999999999
  0
LWPOLYLINE
  5
29165
330
2915A
100
AcDbEntity
  8
Pel_Muntin_AS
100
AcDbPolyline
 90
        4
 70
     1
 43
0.0
 10
24.37500999999997
 20
48.375
 10
18.37567000000001
 20
48.375
 10
18.37565999999998
 20
38.09450000000004
 10
24.375
 20
38.09450000000004
  0
LWPOLYLINE
  5
29166
330
2915A
100
AcDbEntity
  8
Pel_Muntin_AS
100
AcDbPolyline
 90
        4
 70
     1
 43
0.0
 10
17.49966999999998
 20
48.375
 10
11.50033000000002
 20
48.375
 10
11.50031999999999
 20
38.09450000000004
 10
17.49966
 20
38.09450000000004
  0
LWPOLYLINE
  5
29167
330
2915A
100
AcDbEntity
  8
Pel_Muntin_AS
100
AcDbPolyline
 90
        4
 70
     1
 43
0.0
 10
10.62434000000002
 20
48.375
 10
4.625
 20
48.375
 10
4.624990000000025
 20
38.09450000000004
 10
10.62432999999998
 20
38.09450000000004
  0
LWPOLYLINE
  5
29168
330
2915A
100
AcDbEntity
  8
Pel_Muntin_AS
100
AcDbPolyline
 90
        4
 70
     1
 43
0.0
 10
17.49966
 20
37.21851000000004
 10
11.50031999999999
 20
37.21851000000004
 10
11.50031999999999
 20
26.93799999999999
 10
17.49966
 20
26.93799999999999
  0
LWPOLYLINE
  5
29169
330
2915A
100
AcDbEntity
  8
Pel_Muntin_AS
100
AcDbPolyline
 90
        4
 70
     1
 43
0.0
 10
10.62432000000001
 20
37.21851000000004
 10
4.624990000000025
 20
37.21851000000004
 10
4.624990000000025
 20
26.93799999999999
 10
10.62432000000001
 20
26.93799999999999
  0
LWPOLYLINE
  5
2916A
330
2915A
100
AcDbEntity
  8
Pel_Muntin_AS
100
AcDbPolyline
 90
        4
 70
     1
 43
0.0
 10
24.375
 20
37.21849999999995
 10
18.37565999999998
 20
37.21849999999995
 10
18.37565999999998
 20
26.93799999999999
 10
24.375
 20
26.93799999999999
  0
LWPOLYLINE
  5
29BFD
330
2915A
100
AcDbEntity
  8
Pel_Hinging
 48
6.0
100
AcDbPolyline
 90
        5
 70
     0
 43
0.0
 10
1.625
 20
51.375
 10
14.5
 20
1.625
 10
27.375
 20
51.375
 10
1.625
 20
26.5
 10
27.375
 20
1.625
  0
ENDBLK
  5
2916E
330
2915A
100
AcDbEntity
  8
0
100
AcDbBlockEnd
  0
BLOCK
  5
29183
330
29170
100
AcDbEntity
  8
0
100
AcDbBlockBegin
  2
ASPCICM3547T
 70
     0
 10
0.0
 20
0.0
 30
0.0
  3
ASPCICM3547T
  1

  0
LWPOLYLINE
  5
29171
330
29170
100
AcDbEntity
  8
Pel_Frame_Outside
100
AcDbPolyline
 90
        4
 70
     1
 43
0.0
 10
0.0
 20
0.0
 10
35.0
 20
0.0
 10
35.0
 20
47.0
 10
0.0
 20
47.0
  0
LWPOLYLINE
  5
29172
330
29170
100
AcDbEntity
  8
Pel_Sash_Outside
100
AcDbPolyline
 90
        4
 70
     1
 43
0.0
 10
1.625
 20
45.375
 10
33.375
 20
45.375
 10
33.375
 20
1.625
 10
1.625
 20
1.625
  0
LWPOLYLINE
  5
29173
330
29170
100
AcDbEntity
  8
Pel_Sash_Inside
100
AcDbPolyline
 90
        4
 70
     1
 43
0.0
 10
30.375
 20
42.37499999999999
 10
30.375
 20
4.625
 10
4.625
 20
4.625
 10
4.625
 20
42.37499999999999
  0
LWPOLYLINE
  5
29175
330
29170
100
AcDbEntity
  8
Pel_Muntin_AS
100
AcDbPolyline
 90
        4
 70
     1
 43
0.0
 10
17.06200000000001
 20
16.62432999999998
 10
11.28150000000005
 20
16.62432999999998
 10
11.28150000000005
 20
4.625
 10
17.06200000000001
 20
4.625
  0
LWPOLYLINE
  5
29176
330
29170
100
AcDbEntity
  8
Pel_Muntin_AS
100
AcDbPolyline
 90
        4
 70
     1
 43
0.0
 10
10.40549999999996
 20
16.62432999999998
 10
4.625
 20
16.62432999999998
 10
4.625
 20
4.625
 10
10.40549999999996
 20
4.625
  0
LWPOLYLINE
  5
29177
330
29170
100
AcDbEntity
  8
Pel_Muntin_AS
100
AcDbPolyline
 90
        4
 70
     1
 43
0.0
 10
17.06200000000001
 20
29.49968000000001
 10
11.28150000000005
 20
29.49968000000001
 10
11.28150000000005
 20
17.50032999999996
 10
17.06200000000001
 20
17.50032999999996
  0
LWPOLYLINE
  5
29178
330
29170
100
AcDbEntity
  8
Pel_Muntin_AS
100
AcDbPolyline
 90
        4
 70
     1
 43
0.0
 10
10.40549999999996
 20
29.49968000000001
 10
4.625
 20
29.49968000000001
 10
4.625
 20
17.50032999999996
 10
10.40549999999996
 20
17.50032999999996
  0
LWPOLYLINE
  5
29179
330
29170
100
AcDbEntity
  8
Pel_Muntin_AS
100
AcDbPolyline
 90
        4
 70
     1
 43
0.0
 10
23.71849999999995
 20
16.62432999999998
 10
17.93799999999999
 20
16.62432999999998
 10
17.93799999999999
 20
4.625
 10
23.71849999999995
 20
4.625
  0
LWPOLYLINE
  5
2917A
330
29170
100
AcDbEntity
  8
Pel_Muntin_AS
100
AcDbPolyline
 90
        4
 70
     1
 43
0.0
 10
23.71849999999995
 20
29.49967000000004
 10
17.93799999999999
 20
29.49967000000004
 10
17.93799999999999
 20
17.50032999999996
 10
23.71849999999995
 20
17.50032999999996
  0
LWPOLYLINE
  5
2917B
330
29170
100
AcDbEntity
  8
Pel_Muntin_AS
100
AcDbPolyline
 90
        4
 70
     1
 43
0.0
 10
17.06200000000001
 20
42.37499999999999
 10
11.28150000000005
 20
42.37499999999999
 10
11.28150000000005
 20
30.37567000000001
 10
17.06200000000001
 20
30.37567000000001
  0
LWPOLYLINE
  5
2917C
330
29170
100
AcDbEntity
  8
Pel_Muntin_AS
100
AcDbPolyline
 90
        4
 70
     1
 43
0.0
 10
10.40549999999996
 20
42.37499999999999
 10
4.625
 20
42.37499999999999
 10
4.625
 20
30.37567000000001
 10
10.40549999999996
 20
30.37567000000001
  0
LWPOLYLINE
  5
2917D
330
29170
100
AcDbEntity
  8
Pel_Muntin_AS
100
AcDbPolyline
 90
        4
 70
     1
 43
0.0
 10
23.71849999999995
 20
42.37499000000002
 10
17.93799999999999
 20
42.37499000000002
 10
17.93799999999999
 20
30.37567000000001
 10
23.71849999999995
 20
30.37567000000001
  0
LWPOLYLINE
  5
2917E
330
29170
100
AcDbEntity
  8
Pel_Muntin_AS
100
AcDbPolyline
 90
        4
 70
     1
 43
0.0
 10
30.375
 20
16.62432999999998
 10
24.59450000000004
 20
16.62432999999998
 10
24.59450000000004
 20
4.625
 10
30.375
 20
4.625
  0
LWPOLYLINE
  5
2917F
330
29170
100
AcDbEntity
  8
Pel_Muntin_AS
100
AcDbPolyline
 90
        4
 70
     1
 43
0.0
 10
30.375
 20
29.49967000000004
 10
24.59450000000004
 20
29.49967000000004
 10
24.59450000000004
 20
17.50032999999996
 10
30.375
 20
17.50032999999996
  0
LWPOLYLINE
  5
29180
330
29170
100
AcDbEntity
  8
Pel_Muntin_AS
100
AcDbPolyline
 90
        4
 70
     1
 43
0.0
 10
30.375
 20
42.37499000000002
 10
24.59450000000004
 20
42.37499000000002
 10
24.59450000000004
 20
30.37567000000001
 10
30.375
 20
30.37567000000001
  0
LWPOLYLINE
  5
29BB1
330
29170
100
AcDbEntity
  8
Pel_Hinging
 48
6.0
100
AcDbPolyline
 90
        5
 70
     0
 43
0.0
 10
1.625
 20
45.375
 10
17.5
 20
1.625
 10
33.375
 20
45.375
 10
1.625
 20
23.5
 10
33.375
 20
1.625
  0
ENDBLK
  5
29184
330
29170
100
AcDbEntity
  8
0
100
AcDbBlockEnd
  0
BLOCK
  5
29196
330
29186
100
AcDbEntity
  8
0
100
AcDbBlockBegin
  2
ASPCICM2947T
 70
     0
 10
0.0
 20
0.0
 30
0.0
  3
ASPCICM2947T
  1

  0
LWPOLYLINE
  5
29187
330
29186
100
AcDbEntity
  8
Pel_Frame_Outside
100
AcDbPolyline
 90
        4
 70
     1
 43
0.0
 10
0.0
 20
0.0
 10
29.0
 20
0.0
 10
29.0
 20
47.0
 10
0.0
 20
47.0
  0
LWPOLYLINE
  5
29188
330
29186
100
AcDbEntity
  8
Pel_Sash_Outside
100
AcDbPolyline
 90
        4
 70
     1
 43
0.0
 10
1.625
 20
45.375
 10
27.375
 20
45.375
 10
27.375
 20
1.625
 10
1.625
 20
1.625
  0
LWPOLYLINE
  5
29189
330
29186
100
AcDbEntity
  8
Pel_Sash_Inside
100
AcDbPolyline
 90
        4
 70
     1
 43
0.0
 10
24.375
 20
42.37499999999999
 10
24.375
 20
4.625
 10
4.625
 20
4.625
 10
4.625
 20
42.37499999999999
  0
LWPOLYLINE
  5
2918B
330
29186
100
AcDbEntity
  8
Pel_Muntin_AS
100
AcDbPolyline
 90
        4
 70
     1
 43
0.0
 10
17.49966999999998
 20
16.62432999999998
 10
11.50033000000002
 20
16.62432999999998
 10
11.50033000000002
 20
4.625
 10
17.49966999999998
 20
4.625
  0
LWPOLYLINE
  5
2918C
330
29186
100
AcDbEntity
  8
Pel_Muntin_AS
100
AcDbPolyline
 90
        4
 70
     1
 43
0.0
 10
10.62432999999998
 20
16.62432999999998
 10
4.625
 20
16.62432999999998
 10
4.625
 20
4.625
 10
10.62432999999998
 20
4.625
  0
LWPOLYLINE
  5
2918D
330
29186
100
AcDbEntity
  8
Pel_Muntin_AS
100
AcDbPolyline
 90
        4
 70
     1
 43
0.0
 10
17.49966
 20
29.49967000000004
 10
11.50031999999999
 20
29.49967000000004
 10
11.50033000000002
 20
17.50032999999996
 10
17.49966999999998
 20
17.50032999999996
  0
LWPOLYLINE
  5
2918E
330
29186
100
AcDbEntity
  8
Pel_Muntin_AS
100
AcDbPolyline
 90
        4
 70
     1
 43
0.0
 10
10.62432000000001
 20
29.49967000000004
 10
4.624990000000025
 20
29.49967000000004
 10
4.625
 20
17.50032999999996
 10
10.62432999999998
 20
17.50032999999996
  0
LWPOLYLINE
  5
2918F
330
29186
100
AcDbEntity
  8
Pel_Muntin_AS
100
AcDbPolyline
 90
        4
 70
     1
 43
0.0
 10
24.37500999999997
 20
16.62432999999998
 10
18.37567000000001
 20
16.62432999999998
 10
18.37567000000001
 20
4.625
 10
24.37500999999997
 20
4.625
  0
LWPOLYLINE
  5
29190
330
29186
100
AcDbEntity
  8
Pel_Muntin_AS
100
AcDbPolyline
 90
        4
 70
     1
 43
0.0
 10
24.375
 20
29.49965999999995
 10
18.37565999999998
 20
29.49965999999995
 10
18.37567000000001
 20
17.50032999999996
 10
24.37500999999997
 20
17.50032999999996
  0
LWPOLYLINE
  5
29191
330
29186
100
AcDbEntity
  8
Pel_Muntin_AS
100
AcDbPolyline
 90
        4
 70
     1
 43
0.0
 10
24.37500999999997
 20
42.37499999999999
 10
18.37567000000001
 20
42.37499999999999
 10
18.37565999999998
 20
30.37567000000001
 10
24.375
 20
30.37567000000001
  0
LWPOLYLINE
  5
29192
330
29186
100
AcDbEntity
  8
Pel_Muntin_AS
100
AcDbPolyline
 90
        4
 70
     1
 43
0.0
 10
17.49966999999998
 20
42.37499999999999
 10
11.50033000000002
 20
42.37499999999999
 10
11.50031999999999
 20
30.37567000000001
 10
17.49966
 20
30.37567000000001
  0
LWPOLYLINE
  5
29193
330
29186
100
AcDbEntity
  8
Pel_Muntin_AS
100
AcDbPolyline
 90
        4
 70
     1
 43
0.0
 10
10.62434000000002
 20
42.37499999999999
 10
4.625
 20
42.37499999999999
 10
4.624990000000025
 20
30.37567000000001
 10
10.62432999999998
 20
30.37567000000001
  0
LWPOLYLINE
  5
29B8F
330
29186
100
AcDbEntity
  8
Pel_Hinging
 48
6.0
100
AcDbPolyline
 90
        5
 70
     0
 43
0.0
 10
1.625
 20
45.375
 10
14.5
 20
1.625
 10
27.375
 20
45.375
 10
1.625
 20
23.5
 10
27.375
 20
1.625
  0
ENDBLK
  5
29197
330
29186
100
AcDbEntity
  8
0
100
AcDbBlockEnd
  0
BLOCK
  5
291AC
330
29199
100
AcDbEntity
  8
0
100
AcDbBlockBegin
  2
ASPCICM3541T
 70
     0
 10
0.0
 20
0.0
 30
0.0
  3
ASPCICM3541T
  1

  0
LWPOLYLINE
  5
2919A
330
29199
100
AcDbEntity
  8
Pel_Frame_Outside
100
AcDbPolyline
 90
        4
 70
     1
 43
0.0
 10
0.0
 20
0.0
 10
35.0
 20
0.0
 10
35.0
 20
41.0
 10
0.0
 20
41.0
  0
LWPOLYLINE
  5
2919B
330
29199
100
AcDbEntity
  8
Pel_Sash_Outside
100
AcDbPolyline
 90
        4
 70
     1
 43
0.0
 10
1.625
 20
39.375
 10
33.375
 20
39.375
 10
33.375
 20
1.625
 10
1.625
 20
1.625
  0
LWPOLYLINE
  5
2919C
330
29199
100
AcDbEntity
  8
Pel_Sash_Inside
100
AcDbPolyline
 90
        4
 70
     1
 43
0.0
 10
30.375
 20
36.375
 10
30.375
 20
4.625
 10
4.625
 20
4.625
 10
4.625
 20
36.375
  0
LWPOLYLINE
  5
2919E
330
29199
100
AcDbEntity
  8
Pel_Muntin_AS
100
AcDbPolyline
 90
        4
 70
     1
 43
0.0
 10
17.06200000000001
 20
14.62432999999998
 10
11.28150000000005
 20
14.62432999999998
 10
11.28150000000005
 20
4.625
 10
17.06200000000001
 20
4.625
  0
LWPOLYLINE
  5
2919F
330
29199
100
AcDbEntity
  8
Pel_Muntin_AS
100
AcDbPolyline
 90
        4
 70
     1
 43
0.0
 10
10.40549999999996
 20
14.62432999999998
 10
4.625
 20
14.62432999999998
 10
4.625
 20
4.625
 10
10.40549999999996
 20
4.625
  0
LWPOLYLINE
  5
291A0
330
29199
100
AcDbEntity
  8
Pel_Muntin_AS
100
AcDbPolyline
 90
        4
 70
     1
 43
0.0
 10
17.06200000000001
 20
25.49968000000002
 10
11.28150000000005
 20
25.49968000000002
 10
11.28150000000005
 20
15.50032999999996
 10
17.06200000000001
 20
15.50032999999996
  0
LWPOLYLINE
  5
291A1
330
29199
100
AcDbEntity
  8
Pel_Muntin_AS
100
AcDbPolyline
 90
        4
 70
     1
 43
0.0
 10
10.40549999999996
 20
25.49968000000002
 10
4.625
 20
25.49968000000002
 10
4.625
 20
15.50032999999996
 10
10.40549999999996
 20
15.50032999999996
  0
LWPOLYLINE
  5
291A2
330
29199
100
AcDbEntity
  8
Pel_Muntin_AS
100
AcDbPolyline
 90
        4
 70
     1
 43
0.0
 10
23.71849999999995
 20
14.62432999999998
 10
17.93799999999999
 20
14.62432999999998
 10
17.93799999999999
 20
4.625
 10
23.71849999999995
 20
4.625
  0
LWPOLYLINE
  5
291A3
330
29199
100
AcDbEntity
  8
Pel_Muntin_AS
100
AcDbPolyline
 90
        4
 70
     1
 43
0.0
 10
23.71849999999995
 20
25.49967000000004
 10
17.93799999999999
 20
25.49967000000004
 10
17.93799999999999
 20
15.50032999999996
 10
23.71849999999995
 20
15.50032999999996
  0
LWPOLYLINE
  5
291A4
330
29199
100
AcDbEntity
  8
Pel_Muntin_AS
100
AcDbPolyline
 90
        4
 70
     1
 43
0.0
 10
17.06200000000001
 20
36.375
 10
11.28150000000005
 20
36.375
 10
11.28150000000005
 20
26.37567000000001
 10
17.06200000000001
 20
26.37567000000001
  0
LWPOLYLINE
  5
291A5
330
29199
100
AcDbEntity
  8
Pel_Muntin_AS
100
AcDbPolyline
 90
        4
 70
     1
 43
0.0
 10
10.40549999999996
 20
36.375
 10
4.625
 20
36.375
 10
4.625
 20
26.37567000000001
 10
10.40549999999996
 20
26.37567000000001
  0
LWPOLYLINE
  5
291A6
330
29199
100
AcDbEntity
  8
Pel_Muntin_AS
100
AcDbPolyline
 90
        4
 70
     1
 43
0.0
 10
23.71849999999995
 20
36.37499000000003
 10
17.93799999999999
 20
36.37499000000003
 10
17.93799999999999
 20
26.37567000000001
 10
23.71849999999995
 20
26.37567000000001
  0
LWPOLYLINE
  5
291A7
330
29199
100
AcDbEntity
  8
Pel_Muntin_AS
100
AcDbPolyline
 90
        4
 70
     1
 43
0.0
 10
30.375
 20
14.62432999999998
 10
24.59450000000004
 20
14.62432999999998
 10
24.59450000000004
 20
4.625
 10
30.375
 20
4.625
  0
LWPOLYLINE
  5
291A8
330
29199
100
AcDbEntity
  8
Pel_Muntin_AS
100
AcDbPolyline
 90
        4
 70
     1
 43
0.0
 10
30.375
 20
25.49967000000004
 10
24.59450000000004
 20
25.49967000000004
 10
24.59450000000004
 20
15.50032999999996
 10
30.375
 20
15.50032999999996
  0
LWPOLYLINE
  5
291A9
330
29199
100
AcDbEntity
  8
Pel_Muntin_AS
100
AcDbPolyline
 90
        4
 70
     1
 43
0.0
 10
30.375
 20
36.37499000000003
 10
24.59450000000004
 20
36.37499000000003
 10
24.59450000000004
 20
26.37567000000001
 10
30.375
 20
26.37567000000001
  0
LWPOLYLINE
  5
29A93
330
29199
100
AcDbEntity
  8
Pel_Hinging
 48
6.0
100
AcDbPolyline
 90
        5
 70
     0
 43
0.0
 10
1.625
 20
39.375
 10
17.5
 20
1.625
 10
33.375
 20
39.375
 10
1.625
 20
20.5
 10
33.375
 20
1.625
  0
ENDBLK
  5
291AD
330
29199
100
AcDbEntity
  8
0
100
AcDbBlockEnd
  0
BLOCK
  5
291BF
330
291AF
100
AcDbEntity
  8
0
100
AcDbBlockBegin
  2
ASPCICM2941T
 70
     0
 10
0.0
 20
0.0
 30
0.0
  3
ASPCICM2941T
  1

  0
LWPOLYLINE
  5
291B0
330
291AF
100
AcDbEntity
  8
Pel_Frame_Outside
100
AcDbPolyline
 90
        4
 70
     1
 43
0.0
 10
0.0
 20
0.0
 10
29.0
 20
0.0
 10
29.0
 20
41.0
 10
0.0
 20
41.0
  0
LWPOLYLINE
  5
291B1
330
291AF
100
AcDbEntity
  8
Pel_Sash_Outside
100
AcDbPolyline
 90
        4
 70
     1
 43
0.0
 10
1.625
 20
39.375
 10
27.375
 20
39.375
 10
27.375
 20
1.625
 10
1.625
 20
1.625
  0
LWPOLYLINE
  5
291B2
330
291AF
100
AcDbEntity
  8
Pel_Sash_Inside
100
AcDbPolyline
 90
        4
 70
     1
 43
0.0
 10
24.375
 20
36.375
 10
24.375
 20
4.625
 10
4.625
 20
4.625
 10
4.625
 20
36.375
  0
LWPOLYLINE
  5
291B4
330
291AF
100
AcDbEntity
  8
Pel_Muntin_AS
100
AcDbPolyline
 90
        4
 70
     1
 43
0.0
 10
17.49966999999998
 20
14.62432999999998
 10
11.50033000000002
 20
14.62432999999998
 10
11.50033000000002
 20
4.625
 10
17.49966999999998
 20
4.625
  0
LWPOLYLINE
  5
291B5
330
291AF
100
AcDbEntity
  8
Pel_Muntin_AS
100
AcDbPolyline
 90
        4
 70
     1
 43
0.0
 10
10.62432999999998
 20
14.62432999999998
 10
4.625
 20
14.62432999999998
 10
4.625
 20
4.625
 10
10.62432999999998
 20
4.625
  0
LWPOLYLINE
  5
291B6
330
291AF
100
AcDbEntity
  8
Pel_Muntin_AS
100
AcDbPolyline
 90
        4
 70
     1
 43
0.0
 10
17.49966
 20
25.49967000000004
 10
11.50031999999999
 20
25.49967000000004
 10
11.50033000000002
 20
15.50032999999996
 10
17.49966999999998
 20
15.50032999999996
  0
LWPOLYLINE
  5
291B7
330
291AF
100
AcDbEntity
  8
Pel_Muntin_AS
100
AcDbPolyline
 90
        4
 70
     1
 43
0.0
 10
10.62432000000001
 20
25.49967000000004
 10
4.624990000000025
 20
25.49967000000004
 10
4.625
 20
15.50032999999996
 10
10.62432999999998
 20
15.50032999999996
  0
LWPOLYLINE
  5
291B8
330
291AF
100
AcDbEntity
  8
Pel_Muntin_AS
100
AcDbPolyline
 90
        4
 70
     1
 43
0.0
 10
24.37500999999997
 20
14.62432999999998
 10
18.37567000000001
 20
14.62432999999998
 10
18.37567000000001
 20
4.625
 10
24.37500999999997
 20
4.625
  0
LWPOLYLINE
  5
291B9
330
291AF
100
AcDbEntity
  8
Pel_Muntin_AS
100
AcDbPolyline
 90
        4
 70
     1
 43
0.0
 10
24.375
 20
25.49965999999995
 10
18.37565999999998
 20
25.49965999999995
 10
18.37567000000001
 20
15.50032999999996
 10
24.37500999999997
 20
15.50032999999996
  0
LWPOLYLINE
  5
291BA
330
291AF
100
AcDbEntity
  8
Pel_Muntin_AS
100
AcDbPolyline
 90
        4
 70
     1
 43
0.0
 10
24.37500999999997
 20
36.375
 10
18.37567000000001
 20
36.375
 10
18.37565999999998
 20
26.37567000000001
 10
24.375
 20
26.37567000000001
  0
LWPOLYLINE
  5
291BB
330
291AF
100
AcDbEntity
  8
Pel_Muntin_AS
100
AcDbPolyline
 90
        4
 70
     1
 43
0.0
 10
17.49966999999998
 20
36.375
 10
11.50033000000002
 20
36.375
 10
11.50031999999999
 20
26.37567000000001
 10
17.49966
 20
26.37567000000001
  0
LWPOLYLINE
  5
291BC
330
291AF
100
AcDbEntity
  8
Pel_Muntin_AS
100
AcDbPolyline
 90
        4
 70
     1
 43
0.0
 10
10.62434000000002
 20
36.375
 10
4.625
 20
36.375
 10
4.624990000000025
 20
26.37567000000001
 10
10.62432999999998
 20
26.37567000000001
  0
LWPOLYLINE
  5
29AA3
330
291AF
100
AcDbEntity
  8
Pel_Hinging
 48
6.0
100
AcDbPolyline
 90
        5
 70
     0
 43
0.0
 10
1.625
 20
39.375
 10
14.5
 20
1.625
 10
27.375
 20
39.375
 10
1.625
 20
20.5
 10
27.375
 20
1.625
  0
ENDBLK
  5
291C0
330
291AF
100
AcDbEntity
  8
0
100
AcDbBlockEnd
  0
BLOCK
  5
291D5
330
291C2
100
AcDbEntity
  8
0
100
AcDbBlockBegin
  2
ASPCICM3535T
 70
     0
 10
0.0
 20
0.0
 30
0.0
  3
ASPCICM3535T
  1

  0
LWPOLYLINE
  5
291C3
330
291C2
100
AcDbEntity
  8
Pel_Frame_Outside
100
AcDbPolyline
 90
        4
 70
     1
 43
0.0
 10
0.0
 20
0.0
 10
35.0
 20
0.0
 10
35.0
 20
35.0
 10
0.0
 20
35.0
  0
LWPOLYLINE
  5
291C4
330
291C2
100
AcDbEntity
  8
Pel_Sash_Outside
100
AcDbPolyline
 90
        4
 70
     1
 43
0.0
 10
1.625
 20
33.375
 10
33.375
 20
33.375
 10
33.375
 20
1.625
 10
1.625
 20
1.625
  0
LWPOLYLINE
  5
291C5
330
291C2
100
AcDbEntity
  8
Pel_Sash_Inside
100
AcDbPolyline
 90
        4
 70
     1
 43
0.0
 10
30.375
 20
30.375
 10
30.375
 20
4.625
 10
4.625
 20
4.625
 10
4.625
 20
30.375
  0
LWPOLYLINE
  5
291C7
330
291C2
100
AcDbEntity
  8
Pel_Muntin_AS
100
AcDbPolyline
 90
        4
 70
     1
 43
0.0
 10
17.06200000000001
 20
12.62432999999999
 10
11.28150000000005
 20
12.62432999999999
 10
11.28150000000005
 20
4.625
 10
17.06200000000001
 20
4.625
  0
LWPOLYLINE
  5
291C8
330
291C2
100
AcDbEntity
  8
Pel_Muntin_AS
100
AcDbPolyline
 90
        4
 70
     1
 43
0.0
 10
10.40549999999996
 20
12.62432999999999
 10
4.625
 20
12.62432999999999
 10
4.625
 20
4.625
 10
10.40549999999996
 20
4.625
  0
LWPOLYLINE
  5
291C9
330
291C2
100
AcDbEntity
  8
Pel_Muntin_AS
100
AcDbPolyline
 90
        4
 70
     1
 43
0.0
 10
17.06200000000001
 20
21.49967000000004
 10
11.28150000000005
 20
21.49967000000004
 10
11.28150000000005
 20
13.50032999999996
 10
17.06200000000001
 20
13.50032999999996
  0
LWPOLYLINE
  5
291CA
330
291C2
100
AcDbEntity
  8
Pel_Muntin_AS
100
AcDbPolyline
 90
        4
 70
     1
 43
0.0
 10
10.40549999999996
 20
21.49967000000004
 10
4.625
 20
21.49967000000004
 10
4.625
 20
13.50032999999996
 10
10.40549999999996
 20
13.50032999999996
  0
LWPOLYLINE
  5
291CB
330
291C2
100
AcDbEntity
  8
Pel_Muntin_AS
100
AcDbPolyline
 90
        4
 70
     1
 43
0.0
 10
23.71849999999995
 20
12.62432999999999
 10
17.93799999999999
 20
12.62432999999999
 10
17.93799999999999
 20
4.625
 10
23.71849999999995
 20
4.625
  0
LWPOLYLINE
  5
291CC
330
291C2
100
AcDbEntity
  8
Pel_Muntin_AS
100
AcDbPolyline
 90
        4
 70
     1
 43
0.0
 10
23.71849999999995
 20
21.49965999999995
 10
17.93799999999999
 20
21.49965999999995
 10
17.93799999999999
 20
13.50032999999996
 10
23.71849999999995
 20
13.50032999999996
  0
LWPOLYLINE
  5
291CD
330
291C2
100
AcDbEntity
  8
Pel_Muntin_AS
100
AcDbPolyline
 90
        4
 70
     1
 43
0.0
 10
17.06200000000001
 20
30.375
 10
11.28150000000005
 20
30.375
 10
11.28150000000005
 20
22.37566000000004
 10
17.06200000000001
 20
22.37566000000004
  0
LWPOLYLINE
  5
291CE
330
291C2
100
AcDbEntity
  8
Pel_Muntin_AS
100
AcDbPolyline
 90
        4
 70
     1
 43
0.0
 10
10.40549999999996
 20
30.375
 10
4.625
 20
30.375
 10
4.625
 20
22.37566000000004
 10
10.40549999999996
 20
22.37566000000004
  0
LWPOLYLINE
  5
291CF
330
291C2
100
AcDbEntity
  8
Pel_Muntin_AS
100
AcDbPolyline
 90
        4
 70
     1
 43
0.0
 10
23.71849999999995
 20
30.37499000000003
 10
17.93799999999999
 20
30.37499000000003
 10
17.93799999999999
 20
22.37566000000004
 10
23.71849999999995
 20
22.37566000000004
  0
LWPOLYLINE
  5
291D0
330
291C2
100
AcDbEntity
  8
Pel_Muntin_AS
100
AcDbPolyline
 90
        4
 70
     1
 43
0.0
 10
30.375
 20
12.62432999999999
 10
24.59450000000004
 20
12.62432999999999
 10
24.59450000000004
 20
4.625
 10
30.375
 20
4.625
  0
LWPOLYLINE
  5
291D1
330
291C2
100
AcDbEntity
  8
Pel_Muntin_AS
100
AcDbPolyline
 90
        4
 70
     1
 43
0.0
 10
30.375
 20
21.49965999999995
 10
24.59450000000004
 20
21.49965999999995
 10
24.59450000000004
 20
13.50032999999996
 10
30.375
 20
13.50032999999996
  0
LWPOLYLINE
  5
291D2
330
291C2
100
AcDbEntity
  8
Pel_Muntin_AS
100
AcDbPolyline
 90
        4
 70
     1
 43
0.0
 10
30.375
 20
30.37499000000003
 10
24.59450000000004
 20
30.37499000000003
 10
24.59450000000004
 20
22.37566000000004
 10
30.375
 20
22.37566000000004
  0
LWPOLYLINE
  5
29A60
330
291C2
100
AcDbEntity
  8
Pel_Hinging
 48
6.0
100
AcDbPolyline
 90
        5
 70
     0
 43
0.0
 10
1.625
 20
33.375
 10
17.5
 20
1.625
 10
33.375
 20
33.375
 10
1.625
 20
17.5
 10
33.375
 20
1.625
  0
ENDBLK
  5
291D6
330
291C2
100
AcDbEntity
  8
0
100
AcDbBlockEnd
  0
BLOCK
  5
291E8
330
291D8
100
AcDbEntity
  8
0
100
AcDbBlockBegin
  2
ASPCICM2935T
 70
     0
 10
0.0
 20
0.0
 30
0.0
  3
ASPCICM2935T
  1

  0
LWPOLYLINE
  5
291D9
330
291D8
100
AcDbEntity
  8
Pel_Frame_Outside
100
AcDbPolyline
 90
        4
 70
     1
 43
0.0
 10
0.0
 20
0.0
 10
29.0
 20
0.0
 10
29.0
 20
35.0
 10
0.0
 20
35.0
  0
LWPOLYLINE
  5
291DA
330
291D8
100
AcDbEntity
  8
Pel_Sash_Outside
100
AcDbPolyline
 90
        4
 70
     1
 43
0.0
 10
1.625
 20
33.375
 10
27.375
 20
33.375
 10
27.375
 20
1.625
 10
1.625
 20
1.625
  0
LWPOLYLINE
  5
291DB
330
291D8
100
AcDbEntity
  8
Pel_Sash_Inside
100
AcDbPolyline
 90
        4
 70
     1
 43
0.0
 10
24.375
 20
30.375
 10
24.375
 20
4.625
 10
4.625
 20
4.625
 10
4.625
 20
30.375
  0
LWPOLYLINE
  5
291DD
330
291D8
100
AcDbEntity
  8
Pel_Muntin_AS
100
AcDbPolyline
 90
        4
 70
     1
 43
0.0
 10
17.49966999999998
 20
12.62432999999999
 10
11.50033000000002
 20
12.62432999999999
 10
11.50033000000002
 20
4.625
 10
17.49966999999998
 20
4.625
  0
LWPOLYLINE
  5
291DE
330
291D8
100
AcDbEntity
  8
Pel_Muntin_AS
100
AcDbPolyline
 90
        4
 70
     1
 43
0.0
 10
10.62432999999998
 20
12.62432999999999
 10
4.625
 20
12.62432999999999
 10
4.625
 20
4.625
 10
10.62432999999998
 20
4.625
  0
LWPOLYLINE
  5
291DF
330
291D8
100
AcDbEntity
  8
Pel_Muntin_AS
100
AcDbPolyline
 90
        4
 70
     1
 43
0.0
 10
17.49966999999998
 20
21.49967000000004
 10
11.50033000000002
 20
21.49967000000004
 10
11.50033000000002
 20
13.50032999999996
 10
17.49966999999998
 20
13.50032999999996
  0
LWPOLYLINE
  5
291E0
330
291D8
100
AcDbEntity
  8
Pel_Muntin_AS
100
AcDbPolyline
 90
        4
 70
     1
 43
0.0
 10
10.62432999999998
 20
21.49967000000004
 10
4.625
 20
21.49967000000004
 10
4.625
 20
13.50032999999996
 10
10.62432999999998
 20
13.50032999999996
  0
LWPOLYLINE
  5
291E1
330
291D8
100
AcDbEntity
  8
Pel_Muntin_AS
100
AcDbPolyline
 90
        4
 70
     1
 43
0.0
 10
24.37500999999997
 20
12.62432999999999
 10
18.37567000000001
 20
12.62432999999999
 10
18.37567000000001
 20
4.625
 10
24.37500999999997
 20
4.625
  0
LWPOLYLINE
  5
291E2
330
291D8
100
AcDbEntity
  8
Pel_Muntin_AS
100
AcDbPolyline
 90
        4
 70
     1
 43
0.0
 10
24.37500999999997
 20
21.49965999999995
 10
18.37567000000001
 20
21.49965999999995
 10
18.37567000000001
 20
13.50032999999996
 10
24.37500999999997
 20
13.50032999999996
  0
LWPOLYLINE
  5
291E3
330
291D8
100
AcDbEntity
  8
Pel_Muntin_AS
100
AcDbPolyline
 90
        4
 70
     1
 43
0.0
 10
24.37500999999997
 20
30.375
 10
18.37567000000001
 20
30.375
 10
18.37567000000001
 20
22.37567000000002
 10
24.37500999999997
 20
22.37567000000002
  0
LWPOLYLINE
  5
291E4
330
291D8
100
AcDbEntity
  8
Pel_Muntin_AS
100
AcDbPolyline
 90
        4
 70
     1
 43
0.0
 10
17.49966999999998
 20
30.375
 10
11.50033000000002
 20
30.375
 10
11.50033000000002
 20
22.37567000000002
 10
17.49966999999998
 20
22.37567000000002
  0
LWPOLYLINE
  5
291E5
330
291D8
100
AcDbEntity
  8
Pel_Muntin_AS
100
AcDbPolyline
 90
        4
 70
     1
 43
0.0
 10
10.62434000000002
 20
30.375
 10
4.625
 20
30.375
 10
4.625
 20
22.37567000000002
 10
10.62434000000002
 20
22.37567000000002
  0
LWPOLYLINE
  5
29A41
330
291D8
100
AcDbEntity
  8
Pel_Hinging
 48
6.0
100
AcDbPolyline
 90
        5
 70
     0
 43
0.0
 10
1.625
 20
33.375
 10
14.5
 20
1.625
 10
27.375
 20
33.375
 10
1.625
 20
17.5
 10
27.375
 20
1.625
  0
ENDBLK
  5
291E9
330
291D8
100
AcDbEntity
  8
0
100
AcDbBlockEnd
  0
ENDSEC
  0
SECTION
  2
ENTITIES
  0
INSERT
  5
1F3BC
330
1F
100
AcDbEntity
  8
0
100
AcDbBlockReference
  2
E2
 10
456.9490689304891
 20
224.2176160698367
 30
0.0
 41
96.0
 42
96.0
 43
96.0
  0
INSERT
  5
1F3BD
330
1F
100
AcDbEntity
  8
0
100
AcDbBlockReference
  2
E
 10
571.8806785109632
 20
400.2176160698367
 30
0.0
 41
96.0
 42
96.0
 43
96.0
  0
INSERT
  5
1F3BE
330
1F
100
AcDbEntity
  8
0
100
AcDbBlockReference
  2
E
 10
511.8806785109632
 20
400.2176160698367
 30
0.0
 41
96.0
 42
96.0
 43
96.0
  0
INSERT
  5
1F3BF
330
1F
100
AcDbEntity
  8
0
100
AcDbBlockReference
  2
E2
 10
457.8806785109632
 20
315.2176160698367
 30
0.0
 41
96.0
 42
96.0
 43
96.0
  0
INSERT
  5
1F3C0
330
1F
100
AcDbEntity
  8
0
100
AcDbBlockReference
  2
E2
 10
457.8806785109632
 20
400.2176160698367
 30
0.0
 41
96.0
 42
96.0
 43
96.0
  0
INSERT
  5
1F3C1
330
1F
100
AcDbEntity
  8
0
100
AcDbBlockReference
  2
E2
 10
457.8806785109632
 20
479.2176160698367
 30
0.0
 41
96.0
 42
96.0
 43
96.0
  0
INSERT
  5
1F3C2
330
1F
100
AcDbEntity
  8
0
100
AcDbBlockReference
  2
E2
 10
457.8806785109632
 20
552.2176160698367
 30
0.0
 41
96.0
 42
96.0
 43
96.0
  0
INSERT
  5
1F3C3
330
1F
100
AcDbEntity
  8
0
100
AcDbBlockReference
  2
E3
 10
457.8806785109632
 20
619.2176160698367
 30
0.0
 41
96.0
 42
96.0
 43
96.0
  0
INSERT
  5
1F3C4
330
1F
100
AcDbEntity
  8
0
100
AcDbBlockReference
  2
E2
 10
511.8806785109632
 20
619.2176160698367
 30
0.0
 41
96.0
 42
96.0
 43
96.0
  0
INSERT
  5
1F3C5
330
1F
100
AcDbEntity
  8
0
100
AcDbBlockReference
  2
E3
 10
511.8806785109632
 20
680.2176160698366
 30
0.0
 41
96.0
 42
96.0
 43
96.0
  0
INSERT
  5
1F3C6
330
1F
100
AcDbEntity
  8
0
100
AcDbBlockReference
  2
E1
 10
571.8806785109632
 20
680.2176160698366
 30
0.0
 41
96.0
 42
96.0
 43
96.0
  0
INSERT
  5
1F3C7
330
1F
100
AcDbEntity
  8
0
100
AcDbBlockReference
  2
E
 10
571.8806785109632
 20
619.2290240468682
 30
0.0
 41
96.0
 42
96.0
 43
96.0
  0
INSERT
  5
1F3C8
330
1F
100
AcDbEntity
  8
0
100
AcDbBlockReference
  2
E
 10
571.8806785109632
 20
552.2176160698367
 30
0.0
 41
96.0
 42
96.0
 43
96.0
  0
INSERT
  5
1F3C9
330
1F
100
AcDbEntity
  8
0
100
AcDbBlockReference
  2
E
 10
511.8806785109632
 20
552.2176160698367
 30
0.0
 41
96.0
 42
96.0
 43
96.0
  0
INSERT
  5
1F3CA
330
1F
100
AcDbEntity
  8
0
100
AcDbBlockReference
  2
E
 10
571.8806785109632
 20
479.2176160698367
 30
0.0
 41
96.0
 42
96.0
 43
96.0
  0
INSERT
  5
1F3CB
330
1F
100
AcDbEntity
  8
0
100
AcDbBlockReference
  2
E
 10
511.8806785109632
 20
479.2176160698367
 30
0.0
 41
96.0
 42
96.0
 43
96.0
  0
INSERT
  5
1F3CC
330
1F
100
AcDbEntity
  8
0
100
AcDbBlockReference
  2
E
 10
511.8806785109632
 20
315.2176160698367
 30
0.0
 41
96.0
 42
96.0
 43
96.0
  0
INSERT
  5
1F3CD
330
1F
100
AcDbEntity
  8
0
100
AcDbBlockReference
  2
E
 10
571.8806785109632
 20
315.2176160698367
 30
0.0
 41
96.0
 42
96.0
 43
96.0
  0
INSERT
  5
1F3CE
330
1F
100
AcDbEntity
  8
0
100
AcDbBlockReference
  2
E
 10
510.9490689304891
 20
224.2176160698367
 30
0.0
 41
96.0
 42
96.0
 43
96.0
  0
INSERT
  5
1F3D6
330
1F
100
AcDbEntity
  8
0
100
AcDbBlockReference
  2
E
 10
570.9490689304892
 20
224.2176160698367
 30
0.0
 41
96.0
 42
96.0
 43
96.0
  0
MTEXT
  5
1F3D9
330
1F
100
AcDbEntity
  8
0
100
AcDbMText
 10
238.1893657585028
 20
809.6716960177392
 30
0.0
 40
9.375
 41
141.053015960395
 71
     1
 72
     5
  1
Vent Units
 73
     1
 44
1.0
1001
ACAD
1000
MTEXTBEGIN
1070
    73
1070
     1
1070
    44
1040
1.0
1070
    74
1070
     0
1000
MTEXTEND
  0
MTEXT
  5
1F41A
330
1F
100
AcDbEntity
  8
0
100
AcDbMText
 10
551.7500687808867
 20
677.2176160698371
 30
0.0
 40
6.75
 41
25.0
 71
     2
 72
     5
  1
3535
 73
     1
 44
1.0
1001
ACAD
1000
MTEXTBEGIN
1070
    73
1070
     1
1070
    44
1040
1.0
1070
    74
1070
     0
1000
MTEXTEND
  0
MTEXT
  5
1F41B
330
1F
100
AcDbEntity
  8
0
100
AcDbMText
 10
551.7500687808867
 20
616.2176160698371
 30
0.0
 40
6.75
 41
25.0
 71
     2
 72
     5
  1
3541
 73
     1
 44
1.0
1001
ACAD
1000
MTEXTBEGIN
1070
    73
1070
     1
1070
    44
1040
1.0
1070
    74
1070
     0
1000
MTEXTEND
  0
MTEXT
  5
1F41C
330
1F
100
AcDbEntity
  8
0
100
AcDbMText
 10
551.7500687808867
 20
549.2176160698371
 30
0.0
 40
6.75
 41
25.0
 71
     2
 72
     5
  1
3547
 73
     1
 44
1.0
1001
ACAD
1000
MTEXTBEGIN
1070
    73
1070
     1
1070
    44
1040
1.0
1070
    74
1070
     0
1000
MTEXTEND
  0
MTEXT
  5
1F41D
330
1F
100
AcDbEntity
  8
0
100
AcDbMText
 10
551.7500687808867
 20
476.2176160698372
 30
0.0
 40
6.75
 41
25.0
 71
     2
 72
     5
  1
3553
 73
     1
 44
1.0
1001
ACAD
1000
MTEXTBEGIN
1070
    73
1070
     1
1070
    44
1040
1.0
1070
    74
1070
     0
1000
MTEXTEND
  0
MTEXT
  5
1F41E
330
1F
100
AcDbEntity
  8
0
100
AcDbMText
 10
551.7500687808867
 20
397.2176160698372
 30
0.0
 40
6.75
 41
25.0
 71
     2
 72
     5
  1
3559
 73
     1
 44
1.0
1001
ACAD
1000
MTEXTBEGIN
1070
    73
1070
     1
1070
    44
1040
1.0
1070
    74
1070
     0
1000
MTEXTEND
  0
MTEXT
  5
1F41F
330
1F
100
AcDbEntity
  8
0
100
AcDbMText
 10
551.7500687808867
 20
312.2176160698372
 30
0.0
 40
6.75
 41
25.0
 71
     2
 72
     5
  1
3565
 73
     1
 44
1.0
1001
ACAD
1000
MTEXTBEGIN
1070
    73
1070
     1
1070
    44
1040
1.0
1070
    74
1070
     0
1000
MTEXTEND
  0
MTEXT
  5
1F420
330
1F
100
AcDbEntity
  8
0
100
AcDbMText
 10
551.7500687808867
 20
221.2176160698372
 30
0.0
 40
6.75
 41
25.0
 71
     2
 72
     5
  1
3571
 73
     1
 44
1.0
1001
ACAD
1000
MTEXTBEGIN
1070
    73
1070
     1
1070
    44
1040
1.0
1070
    74
1070
     0
1000
MTEXTEND
  0
MTEXT
  5
1F423
330
1F
100
AcDbEntity
  8
0
100
AcDbMText
 10
494.7500687808867
 20
677.2176160698371
 30
0.0
 40
6.75
 41
25.0
 71
     2
 72
     5
  1
2935
 73
     1
 44
1.0
1001
ACAD
1000
MTEXTBEGIN
1070
    73
1070
     1
1070
    44
1040
1.0
1070
    74
1070
     0
1000
MTEXTEND
  0
MTEXT
  5
1F424
330
1F
100
AcDbEntity
  8
0
100
AcDbMText
 10
494.7500687808867
 20
616.2176160698371
 30
0.0
 40
6.75
 41
25.0
 71
     2
 72
     5
  1
2941
 73
     1
 44
1.0
1001
ACAD
1000
MTEXTBEGIN
1070
    73
1070
     1
1070
    44
1040
1.0
1070
    74
1070
     0
1000
MTEXTEND
  0
MTEXT
  5
1F425
330
1F
100
AcDbEntity
  8
0
100
AcDbMText
 10
494.7500687808867
 20
549.2176160698371
 30
0.0
 40
6.75
 41
25.0
 71
     2
 72
     5
  1
2947
 73
     1
 44
1.0
1001
ACAD
1000
MTEXTBEGIN
1070
    73
1070
     1
1070
    44
1040
1.0
1070
    74
1070
     0
1000
MTEXTEND
  0
MTEXT
  5
1F426
330
1F
100
AcDbEntity
  8
0
100
AcDbMText
 10
494.7500687808867
 20
476.2176160698372
 30
0.0
 40
6.75
 41
25.0
 71
     2
 72
     5
  1
2953
 73
     1
 44
1.0
1001
ACAD
1000
MTEXTBEGIN
1070
    73
1070
     1
1070
    44
1040
1.0
1070
    74
1070
     0
1000
MTEXTEND
  0
MTEXT
  5
1F427
330
1F
100
AcDbEntity
  8
0
100
AcDbMText
 10
494.7500687808867
 20
397.2176160698372
 30
0.0
 40
6.75
 41
25.0
 71
     2
 72
     5
  1
2959
 73
     1
 44
1.0
1001
ACAD
1000
MTEXTBEGIN
1070
    73
1070
     1
1070
    44
1040
1.0
1070
    74
1070
     0
1000
MTEXTEND
  0
MTEXT
  5
1F428
330
1F
100
AcDbEntity
  8
0
100
AcDbMText
 10
494.7500687808867
 20
312.2176160698372
 30
0.0
 40
6.75
 41
25.0
 71
     2
 72
     5
  1
2965
 73
     1
 44
1.0
1001
ACAD
1000
MTEXTBEGIN
1070
    73
1070
     1
1070
    44
1040
1.0
1070
    74
1070
     0
1000
MTEXTEND
  0
MTEXT
  5
1F429
330
1F
100
AcDbEntity
  8
0
100
AcDbMText
 10
494.7500687808867
 20
221.2176160698372
 30
0.0
 40
6.75
 41
25.0
 71
     2
 72
     5
  1
2971
 73
     1
 44
1.0
1001
ACAD
1000
MTEXTBEGIN
1070
    73
1070
     1
1070
    44
1040
1.0
1070
    74
1070
     0
1000
MTEXTEND
  0
MTEXT
  5
1F42C
330
1F
100
AcDbEntity
  8
0
100
AcDbMText
 10
442.7500687808867
 20
677.2176160698371
 30
0.0
 40
6.75
 41
25.0
 71
     2
 72
     5
  1
2535
 73
     1
 44
1.0
1001
ACAD
1000
MTEXTBEGIN
1070
    73
1070
     1
1070
    44
1040
1.0
1070
    74
1070
     0
1000
MTEXTEND
  0
MTEXT
  5
1F42D
330
1F
100
AcDbEntity
  8
0
100
AcDbMText
 10
442.7500687808867
 20
616.2176160698371
 30
0.0
 40
6.75
 41
25.0
 71
     2
 72
     5
  1
2541
 73
     1
 44
1.0
1001
ACAD
1000
MTEXTBEGIN
1070
    73
1070
     1
1070
    44
1040
1.0
1070
    74
1070
     0
1000
MTEXTEND
  0
MTEXT
  5
1F42E
330
1F
100
AcDbEntity
  8
0
100
AcDbMText
 10
442.7500687808867
 20
549.2176160698371
 30
0.0
 40
6.75
 41
25.0
 71
     2
 72
     5
  1
2547
 73
     1
 44
1.0
1001
ACAD
1000
MTEXTBEGIN
1070
    73
1070
     1
1070
    44
1040
1.0
1070
    74
1070
     0
1000
MTEXTEND
  0
MTEXT
  5
1F42F
330
1F
100
AcDbEntity
  8
0
100
AcDbMText
 10
442.7500687808867
 20
476.2176160698372
 30
0.0
 40
6.75
 41
25.0
 71
     2
 72
     5
  1
2553
 73
     1
 44
1.0
1001
ACAD
1000
MTEXTBEGIN
1070
    73
1070
     1
1070
    44
1040
1.0
1070
    74
1070
     0
1000
MTEXTEND
  0
MTEXT
  5
1F430
330
1F
100
AcDbEntity
  8
0
100
AcDbMText
 10
442.7500687808867
 20
397.2176160698372
 30
0.0
 40
6.75
 41
25.0
 71
     2
 72
     5
  1
2559
 73
     1
 44
1.0
1001
ACAD
1000
MTEXTBEGIN
1070
    73
1070
     1
1070
    44
1040
1.0
1070
    74
1070
     0
1000
MTEXTEND
  0
MTEXT
  5
1F431
330
1F
100
AcDbEntity
  8
0
100
AcDbMText
 10
442.7500687808867
 20
312.2176160698372
 30
0.0
 40
6.75
 41
25.0
 71
     2
 72
     5
  1
2565
 73
     1
 44
1.0
1001
ACAD
1000
MTEXTBEGIN
1070
    73
1070
     1
1070
    44
1040
1.0
1070
    74
1070
     0
1000
MTEXTEND
  0
MTEXT
  5
1F432
330
1F
100
AcDbEntity
  8
0
100
AcDbMText
 10
442.7500687808867
 20
221.2176160698372
 30
0.0
 40
6.75
 41
25.0
 71
     2
 72
     5
  1
2571
 73
     1
 44
1.0
1001
ACAD
1000
MTEXTBEGIN
1070
    73
1070
     1
1070
    44
1040
1.0
1070
    74
1070
     0
1000
MTEXTEND
  0
MTEXT
  5
1F435
330
1F
100
AcDbEntity
  8
0
100
AcDbMText
 10
393.7500687808868
 20
677.2176160698371
 30
0.0
 40
6.75
 41
25.0
 71
     2
 72
     5
  1
2335
 73
     1
 44
1.0
1001
ACAD
1000
MTEXTBEGIN
1070
    73
1070
     1
1070
    44
1040
1.0
1070
    74
1070
     0
1000
MTEXTEND
  0
MTEXT
  5
1F436
330
1F
100
AcDbEntity
  8
0
100
AcDbMText
 10
393.7500687808868
 20
616.2176160698371
 30
0.0
 40
6.75
 41
25.0
 71
     2
 72
     5
  1
2341
 73
     1
 44
1.0
1001
ACAD
1000
MTEXTBEGIN
1070
    73
1070
     1
1070
    44
1040
1.0
1070
    74
1070
     0
1000
MTEXTEND
  0
MTEXT
  5
1F437
330
1F
100
AcDbEntity
  8
0
100
AcDbMText
 10
393.7500687808868
 20
549.2176160698371
 30
0.0
 40
6.75
 41
25.0
 71
     2
 72
     5
  1
2347
 73
     1
 44
1.0
1001
ACAD
1000
MTEXTBEGIN
1070
    73
1070
     1
1070
    44
1040
1.0
1070
    74
1070
     0
1000
MTEXTEND
  0
MTEXT
  5
1F438
330
1F
100
AcDbEntity
  8
0
100
AcDbMText
 10
393.7500687808868
 20
476.2176160698372
 30
0.0
 40
6.75
 41
25.0
 71
     2
 72
     5
  1
2353
 73
     1
 44
1.0
1001
ACAD
1000
MTEXTBEGIN
1070
    73
1070
     1
1070
    44
1040
1.0
1070
    74
1070
     0
1000
MTEXTEND
  0
MTEXT
  5
1F439
330
1F
100
AcDbEntity
  8
0
100
AcDbMText
 10
393.7500687808868
 20
397.2176160698372
 30
0.0
 40
6.75
 41
25.0
 71
     2
 72
     5
  1
2359
 73
     1
 44
1.0
1001
ACAD
1000
MTEXTBEGIN
1070
    73
1070
     1
1070
    44
1040
1.0
1070
    74
1070
     0
1000
MTEXTEND
  0
MTEXT
  5
1F43A
330
1F
100
AcDbEntity
  8
0
100
AcDbMText
 10
393.7500687808868
 20
312.2176160698372
 30
0.0
 40
6.75
 41
25.0
 71
     2
 72
     5
  1
2365
 73
     1
 44
1.0
1001
ACAD
1000
MTEXTBEGIN
1070
    73
1070
     1
1070
    44
1040
1.0
1070
    74
1070
     0
1000
MTEXTEND
  0
MTEXT
  5
1F43C
330
1F
100
AcDbEntity
  8
0
100
AcDbMText
 10
346.7500687808867
 20
312.2176160698372
 30
0.0
 40
6.75
 41
25.0
 71
     2
 72
     5
  1
2165
 73
     1
 44
1.0
1001
ACAD
1000
MTEXTBEGIN
1070
    73
1070
     1
1070
    44
1040
1.0
1070
    74
1070
     0
1000
MTEXTEND
  0
MTEXT
  5
1F43D
330
1F
100
AcDbEntity
  8
0
100
AcDbMText
 10
346.7500687808867
 20
397.2176160698372
 30
0.0
 40
6.75
 41
25.0
 71
     2
 72
     5
  1
2159
 73
     1
 44
1.0
1001
ACAD
1000
MTEXTBEGIN
1070
    73
1070
     1
1070
    44
1040
1.0
1070
    74
1070
     0
1000
MTEXTEND
  0
MTEXT
  5
1F43E
330
1F
100
AcDbEntity
  8
0
100
AcDbMText
 10
346.7500687808867
 20
476.2176160698372
 30
0.0
 40
6.75
 41
25.0
 71
     2
 72
     5
  1
2153
 73
     1
 44
1.0
1001
ACAD
1000
MTEXTBEGIN
1070
    73
1070
     1
1070
    44
1040
1.0
1070
    74
1070
     0
1000
MTEXTEND
  0
MTEXT
  5
1F43F
330
1F
100
AcDbEntity
  8
0
100
AcDbMText
 10
346.7500687808867
 20
549.2176160698371
 30
0.0
 40
6.75
 41
25.0
 71
     2
 72
     5
  1
2147
 73
     1
 44
1.0
1001
ACAD
1000
MTEXTBEGIN
1070
    73
1070
     1
1070
    44
1040
1.0
1070
    74
1070
     0
1000
MTEXTEND
  0
MTEXT
  5
1F440
330
1F
100
AcDbEntity
  8
0
100
AcDbMText
 10
346.7500687808867
 20
616.2176160698371
 30
0.0
 40
6.75
 41
25.0
 71
     2
 72
     5
  1
2141
 73
     1
 44
1.0
1001
ACAD
1000
MTEXTBEGIN
1070
    73
1070
     1
1070
    44
1040
1.0
1070
    74
1070
     0
1000
MTEXTEND
  0
MTEXT
  5
1F441
330
1F
100
AcDbEntity
  8
0
100
AcDbMText
 10
346.7500687808867
 20
677.2176160698371
 30
0.0
 40
6.75
 41
25.0
 71
     2
 72
     5
  1
2135
 73
     1
 44
1.0
1001
ACAD
1000
MTEXTBEGIN
1070
    73
1070
     1
1070
    44
1040
1.0
1070
    74
1070
     0
1000
MTEXTEND
  0
MTEXT
  5
1F444
330
1F
100
AcDbEntity
  8
0
100
AcDbMText
 10
302.7500687808867
 20
312.2176160698372
 30
0.0
 40
6.75
 41
25.0
 71
     2
 72
     5
  1
1765
 73
     1
 44
1.0
1001
ACAD
1000
MTEXTBEGIN
1070
    73
1070
     1
1070
    44
1040
1.0
1070
    74
1070
     0
1000
MTEXTEND
  0
MTEXT
  5
1F445
330
1F
100
AcDbEntity
  8
0
100
AcDbMText
 10
302.7500687808867
 20
397.2176160698372
 30
0.0
 40
6.75
 41
25.0
 71
     2
 72
     5
  1
1759
 73
     1
 44
1.0
1001
ACAD
1000
MTEXTBEGIN
1070
    73
1070
     1
1070
    44
1040
1.0
1070
    74
1070
     0
1000
MTEXTEND
  0
MTEXT
  5
1F446
330
1F
100
AcDbEntity
  8
0
100
AcDbMText
 10
302.7500687808867
 20
476.2176160698372
 30
0.0
 40
6.75
 41
25.0
 71
     2
 72
     5
  1
1753
 73
     1
 44
1.0
1001
ACAD
1000
MTEXTBEGIN
1070
    73
1070
     1
1070
    44
1040
1.0
1070
    74
1070
     0
1000
MTEXTEND
  0
MTEXT
  5
1F447
330
1F
100
AcDbEntity
  8
0
100
AcDbMText
 10
302.7500687808867
 20
549.2176160698371
 30
0.0
 40
6.75
 41
25.0
 71
     2
 72
     5
  1
1747
 73
     1
 44
1.0
1001
ACAD
1000
MTEXTBEGIN
1070
    73
1070
     1
1070
    44
1040
1.0
1070
    74
1070
     0
1000
MTEXTEND
  0
MTEXT
  5
1F448
330
1F
100
AcDbEntity
  8
0
100
AcDbMText
 10
302.7500687808867
 20
616.2176160698371
 30
0.0
 40
6.75
 41
25.0
 71
     2
 72
     5
  1
1741
 73
     1
 44
1.0
1001
ACAD
1000
MTEXTBEGIN
1070
    73
1070
     1
1070
    44
1040
1.0
1070
    74
1070
     0
1000
MTEXTEND
  0
MTEXT
  5
1F449
330
1F
100
AcDbEntity
  8
0
100
AcDbMText
 10
302.7500687808867
 20
677.2176160698371
 30
0.0
 40
6.75
 41
25.0
 71
     2
 72
     5
  1
1735
 73
     1
 44
1.0
1001
ACAD
1000
MTEXTBEGIN
1070
    73
1070
     1
1070
    44
1040
1.0
1070
    74
1070
     0
1000
MTEXTEND
  0
TEXT
  5
1F44C
330
1F
100
AcDbEntity
  8
0
100
AcDbText
 10
542.0000687808867
 20
773.4586433261516
 30
0.0
 40
6.0
  1
(889)
 72
     4
 11
551.783834128772
 21
775.6278111296987
 31
0.0
100
AcDbText
  0
TEXT
  5
1F44D
330
1F
100
AcDbEntity
  8
0
100
AcDbText
 10
542.0000687808867
 20
783.2086433261516
 30
0.0
 40
6.0
  1
(908)
 72
     4
 11
551.783834128772
 21
785.3778111296987
 31
0.0
100
AcDbText
  0
TEXT
  5
1F44E
330
1F
100
AcDbEntity
  8
0
100
AcDbText
 10
542.0000687808867
 20
756.5836433261516
 30
0.0
 40
7.0
  1
2' 11
 72
     4
 11
552.4499323552387
 21
760.0955805703535
 31
0.0
100
AcDbText
  0
TEXT
  5
1F44F
330
1F
100
AcDbEntity
  8
0
100
AcDbText
 10
542.0000687808867
 20
740.0836433261517
 30
0.0
 40
7.0
  1
2' 11"
 72
     4
 11
554.1856076621964
 21
743.5955805703535
 31
0.0
100
AcDbText
  0
TEXT
  5
1F450
330
1F
100
AcDbEntity
  8
0
100
AcDbText
 10
485.0000687808867
 20
756.5836433261516
 30
0.0
 40
7.0
  1
2' 5
 72
     4
 11
492.7306281260436
 21
760.0382817981844
 31
0.0
100
AcDbText
  0
TEXT
  5
1F451
330
1F
100
AcDbEntity
  8
0
100
AcDbText
 10
485.0000687808867
 20
740.0836433261514
 30
0.0
 40
7.0
  1
2' 5"
 72
     4
 11
494.4663034330013
 21
743.5382817981842
 31
0.0
100
AcDbText
  0
TEXT
  5
1F452
330
1F
100
AcDbEntity
  8
0
100
AcDbText
 10
485.0000687808867
 20
783.2086433261516
 30
0.0
 40
6.0
  1
(756)
 72
     4
 11
494.7838341287721
 21
785.3778111296987
 31
0.0
100
AcDbText
  0
TEXT
  5
1F453
330
1F
100
AcDbEntity
  8
0
100
AcDbText
 10
485.0000687808867
 20
773.4586433261516
 30
0.0
 40
6.0
  1
(737)
 72
     4
 11
494.7838341287721
 21
775.6278111296987
 31
0.0
100
AcDbText
  0
TEXT
  5
1F454
330
1F
100
AcDbEntity
  8
0
100
AcDbText
 10
293.0000687808867
 20
773.4586433261516
 30
0.0
 40
6.0
  1
(432)
 72
     4
 11
302.7838341287721
 21
775.6278111296987
 31
0.0
100
AcDbText
  0
TEXT
  5
1F455
330
1F
100
AcDbEntity
  8
0
100
AcDbText
 10
293.0000687808867
 20
783.2086433261516
 30
0.0
 40
6.0
  1
(451)
 72
     4
 11
302.7838341287721
 21
785.3778111296987
 31
0.0
100
AcDbText
  0
TEXT
  5
1F456
330
1F
100
AcDbEntity
  8
0
100
AcDbText
 10
293.0000687808867
 20
740.0836433261514
 30
0.0
 40
7.0
  1
1' 5"
 72
     4
 11
302.4663034330014
 21
743.5382817981842
 31
0.0
100
AcDbText
  0
TEXT
  5
1F457
330
1F
100
AcDbEntity
  8
0
100
AcDbText
 10
293.0000687808867
 20
756.5836433261514
 30
0.0
 40
7.0
  1
1' 5
 72
     4
 11
300.7306281260436
 21
760.0382817981842
 31
0.0
100
AcDbText
  0
TEXT
  5
1F458
330
1F
100
AcDbEntity
  8
0
100
AcDbText
 10
337.0000687808868
 20
773.4586433261516
 30
0.0
 40
6.0
  1
(533)
 72
     4
 11
346.7838341287721
 21
775.6278111296987
 31
0.0
100
AcDbText
  0
TEXT
  5
1F459
330
1F
100
AcDbEntity
  8
0
100
AcDbText
 10
337.0000687808868
 20
783.2086433261516
 30
0.0
 40
6.0
  1
(552)
 72
     4
 11
346.7838341287721
 21
785.3778111296987
 31
0.0
100
AcDbText
  0
TEXT
  5
1F45A
330
1F
100
AcDbEntity
  8
0
100
AcDbText
 10
337.0000687808868
 20
740.0836433261517
 30
0.0
 40
7.0
  1
1' 9"
 72
     4
 11
346.4663034330014
 21
743.5382817981844
 31
0.0
100
AcDbText
  0
TEXT
  5
1F45B
330
1F
100
AcDbEntity
  8
0
100
AcDbText
 10
337.0000687808868
 20
756.5836433261516
 30
0.0
 40
7.0
  1
1' 9
 72
     4
 11
344.7306281260436
 21
760.0382817981844
 31
0.0
100
AcDbText
  0
TEXT
  5
1F45C
330
1F
100
AcDbEntity
  8
0
100
AcDbText
 10
384.0000687808867
 20
773.4586433261516
 30
0.0
 40
6.0
  1
(584)
 72
     4
 11
393.7838341287721
 21
775.6278111296987
 31
0.0
100
AcDbText
  0
TEXT
  5
1F45D
330
1F
100
AcDbEntity
  8
0
100
AcDbText
 10
384.0000687808867
 20
783.2086433261516
 30
0.0
 40
6.0
  1
(603)
 72
     4
 11
393.7838341287721
 21
785.3778111296987
 31
0.0
100
AcDbText
  0
TEXT
  5
1F45E
330
1F
100
AcDbEntity
  8
0
100
AcDbText
 10
384.0000687808867
 20
740.0836433261517
 30
0.0
 40
7.0
  1
1' 11"
 72
     4
 11
396.1856076621964
 21
743.5955805703535
 31
0.0
100
AcDbText
  0
TEXT
  5
1F45F
330
1F
100
AcDbEntity
  8
0
100
AcDbText
 10
384.0000687808867
 20
756.5836433261516
 30
0.0
 40
7.0
  1
1' 11
 72
     4
 11
394.4499323552387
 21
760.0955805703535
 31
0.0
100
AcDbText
  0
TEXT
  5
1F460
330
1F
100
AcDbEntity
  8
0
100
AcDbText
 10
433.0000687808867
 20
773.4586433261516
 30
0.0
 40
6.0
  1
(635)
 72
     4
 11
442.7838341287721
 21
775.6278111296987
 31
0.0
100
AcDbText
  0
TEXT
  5
1F461
330
1F
100
AcDbEntity
  8
0
100
AcDbText
 10
433.0000687808867
 20
783.1237996899381
 30
0.0
 40
6.0
  1
(654)
 72
     4
 11
442.7838341287721
 21
785.2929674934852
 31
0.0
100
AcDbText
  0
TEXT
  5
1F462
330
1F
100
AcDbEntity
  8
0
100
AcDbText
 10
433.0000687808867
 20
740.0836433261517
 30
0.0
 40
7.0
  1
2' 1"
 72
     4
 11
442.4663034330014
 21
743.5955805703535
 31
0.0
100
AcDbText
  0
TEXT
  5
1F463
330
1F
100
AcDbEntity
  8
0
100
AcDbText
 10
433.0000687808867
 20
756.5836433261516
 30
0.0
 40
7.0
  1
2' 1
 72
     4
 11
440.7306281260436
 21
760.0955805703535
 31
0.0
100
AcDbText
  0
INSERT
  5
1F464
330
1F
100
AcDbEntity
  8
0
100
AcDbBlockReference
  2
341
 10
300.7306281260436
 20
760.0382817981842
 30
0.0
 41
96.0
 42
96.0
 43
96.0
  0
INSERT
  5
1F465
330
1F
100
AcDbEntity
  8
0
100
AcDbBlockReference
  2
341
 10
344.7306281260436
 20
760.0382817981844
 30
0.0
 41
96.0
 42
96.0
 43
96.0
  0
INSERT
  5
1F466
330
1F
100
AcDbEntity
  8
0
100
AcDbBlockReference
  2
342
 10
394.4499323552387
 20
760.0955805703535
 30
0.0
 41
96.0
 42
96.0
 43
96.0
  0
INSERT
  5
1F467
330
1F
100
AcDbEntity
  8
0
100
AcDbBlockReference
  2
341
 10
440.7306281260436
 20
760.0955805703535
 30
0.0
 41
96.0
 42
96.0
 43
96.0
  0
INSERT
  5
1F468
330
1F
100
AcDbEntity
  8
0
100
AcDbBlockReference
  2
341
 10
492.7306281260436
 20
760.0382817981844
 30
0.0
 41
96.0
 42
96.0
 43
96.0
  0
INSERT
  5
1F469
330
1F
100
AcDbEntity
  8
0
100
AcDbBlockReference
  2
342
 10
552.4499323552387
 20
760.0955805703535
 30
0.0
 41
96.0
 42
96.0
 43
96.0
  0
TEXT
  5
1F46A
330
1F
100
AcDbEntity
  8
0
100
AcDbText
 10
249.8321627967996
 20
562.4676160698367
 30
0.0
 40
7.0
  1
3' 11
 50
90.0
 72
     4
 11
246.3799117736072
 21
572.9174796441887
 31
0.0
100
AcDbText
  0
TEXT
  5
1F46B
330
1F
100
AcDbEntity
  8
0
100
AcDbText
 10
266.314365758503
 20
562.4676160698368
 30
0.0
 40
7.0
  1
3' 11"
 50
90.0
 72
     4
 11
262.8621147353106
 21
574.6531549511464
 31
0.0
100
AcDbText
  0
TEXT
  5
1F46C
330
1F
100
AcDbEntity
  8
0
100
AcDbText
 10
223.1893657585029
 20
562.4676160698365
 30
0.0
 40
6.0
  1
(1 213)
 50
90.0
 72
     4
 11
221.0201979549558
 21
575.7466065200413
 31
0.0
100
AcDbText
  0
TEXT
  5
1F46D
330
1F
100
AcDbEntity
  8
0
100
AcDbText
 10
232.9393657585029
 20
562.4676160698365
 30
0.0
 40
6.0
  1
(1 194)
 50
90.0
 72
     4
 11
230.7701979549558
 21
575.7466065200413
 31
0.0
100
AcDbText
  0
TEXT
  5
1F47E
330
1F
100
AcDbEntity
  8
0
100
AcDbText
 10
232.9393657585029
 20
684.4676160698367
 30
0.0
 40
6.0
  1
(889)
 50
90.0
 72
     4
 11
230.7701979549558
 21
694.251381417722
 31
0.0
100
AcDbText
  0
TEXT
  5
1F47F
330
1F
100
AcDbEntity
  8
0
100
AcDbText
 10
223.1893657585029
 20
684.4676160698367
 30
0.0
 40
6.0
  1
(908)
 50
90.0
 72
     4
 11
221.0201979549558
 21
694.251381417722
 31
0.0
100
AcDbText
  0
TEXT
  5
1F480
330
1F
100
AcDbEntity
  8
0
100
AcDbText
 10
249.8321627967996
 20
680.2176160698366
 30
0.0
 40
7.0
  1
2' 11
 50
90.0
 72
     4
 11
246.3202255525976
 21
690.6674796441887
 31
0.0
100
AcDbText
  0
TEXT
  5
1F481
330
1F
100
AcDbEntity
  8
0
100
AcDbText
 10
266.3143657585028
 20
680.2176160698366
 30
0.0
 40
7.0
  1
2' 11"
 50
90.0
 72
     4
 11
262.8024285143009
 21
692.4031549511463
 31
0.0
100
AcDbText
  0
TEXT
  5
1F486
330
1F
100
AcDbEntity
  8
0
100
AcDbText
 10
249.8321627967996
 20
626.4676160698367
 30
0.0
 40
7.0
  1
3' 5
 50
90.0
 72
     4
 11
246.3799117736072
 21
634.1981754149935
 31
0.0
100
AcDbText
  0
TEXT
  5
1F487
330
1F
100
AcDbEntity
  8
0
100
AcDbText
 10
266.314365758503
 20
626.4676160698367
 30
0.0
 40
7.0
  1
3' 5"
 50
90.0
 72
     4
 11
262.8621147353106
 21
635.9338507219513
 31
0.0
100
AcDbText
  0
TEXT
  5
1F488
330
1F
100
AcDbEntity
  8
0
100
AcDbText
 10
223.1893657585029
 20
626.4676160698367
 30
0.0
 40
6.0
  1
(1 060)
 50
90.0
 72
     4
 11
221.0201979549558
 21
639.7466065200413
 31
0.0
100
AcDbText
  0
TEXT
  5
1F489
330
1F
100
AcDbEntity
  8
0
100
AcDbText
 10
232.9393657585029
 20
626.4676160698367
 30
0.0
 40
6.0
  1
(1 041)
 50
90.0
 72
     4
 11
230.7701979549558
 21
639.7466065200413
 31
0.0
100
AcDbText
  0
TEXT
  5
1F48A
330
1F
100
AcDbEntity
  8
0
100
AcDbText
 10
232.9393657585029
 20
492.4676160698366
 30
0.0
 40
6.0
  1
(1 346)
 50
90.0
 72
     4
 11
230.7701979549558
 21
505.7466065200412
 31
0.0
100
AcDbText
  0
TEXT
  5
1F48B
330
1F
100
AcDbEntity
  8
0
100
AcDbText
 10
223.1893657585029
 20
492.4676160698366
 30
0.0
 40
6.0
  1
(1 365)
 50
90.0
 72
     4
 11
221.0201979549558
 21
505.7466065200412
 31
0.0
100
AcDbText
  0
TEXT
  5
1F48C
330
1F
100
AcDbEntity
  8
0
100
AcDbText
 10
266.3143657585028
 20
492.4676160698367
 30
0.0
 40
7.0
  1
4' 5"
 50
90.0
 72
     4
 11
262.8740519795124
 21
501.9338507219513
 31
0.0
100
AcDbText
  0
TEXT
  5
1F48D
330
1F
100
AcDbEntity
  8
0
100
AcDbText
 10
249.8321627967996
 20
492.4676160698366
 30
0.0
 40
7.0
  1
4' 5
 50
90.0
 72
     4
 11
246.3918490178091
 21
500.1981754149936
 31
0.0
100
AcDbText
  0
TEXT
  5
1F48E
330
1F
100
AcDbEntity
  8
0
100
AcDbText
 10
232.9393657585029
 20
416.4676160698366
 30
0.0
 40
6.0
  1
(1 499)
 50
90.0
 72
     4
 11
230.7701979549558
 21
429.7466065200413
 31
0.0
100
AcDbText
  0
TEXT
  5
1F48F
330
1F
100
AcDbEntity
  8
0
100
AcDbText
 10
223.1893657585029
 20
416.4676160698366
 30
0.0
 40
6.0
  1
(1 518)
 50
90.0
 72
     4
 11
221.0201979549558
 21
429.7466065200413
 31
0.0
100
AcDbText
  0
TEXT
  5
1F490
330
1F
100
AcDbEntity
  8
0
100
AcDbText
 10
266.3143657585028
 20
416.4676160698367
 30
0.0
 40
7.0
  1
4' 11"
 50
90.0
 72
     4
 11
262.8024285143009
 21
428.6531549511464
 31
0.0
100
AcDbText
  0
TEXT
  5
1F491
330
1F
100
AcDbEntity
  8
0
100
AcDbText
 10
249.8321627967996
 20
416.4676160698367
 30
0.0
 40
7.0
  1
4' 11
 50
90.0
 72
     4
 11
246.3202255525976
 21
426.9174796441887
 31
0.0
100
AcDbText
  0
TEXT
  5
1F492
330
1F
100
AcDbEntity
  8
0
100
AcDbText
 10
249.8321627967996
 20
334.4676160698366
 30
0.0
 40
7.0
  1
5' 5
 50
90.0
 72
     4
 11
246.4395979946167
 21
342.1981754149935
 31
0.0
100
AcDbText
  0
TEXT
  5
1F493
330
1F
100
AcDbEntity
  8
0
100
AcDbText
 10
266.3143657585028
 20
334.4676160698367
 30
0.0
 40
7.0
  1
5' 5"
 50
90.0
 72
     4
 11
262.9218009563201
 21
343.9338507219513
 31
0.0
100
AcDbText
  0
TEXT
  5
1F494
330
1F
100
AcDbEntity
  8
0
100
AcDbText
 10
223.1893657585029
 20
334.4676160698368
 30
0.0
 40
6.0
  1
(1 670)
 50
90.0
 72
     4
 11
221.0201979549558
 21
347.7466065200414
 31
0.0
100
AcDbText
  0
TEXT
  5
1F495
330
1F
100
AcDbEntity
  8
0
100
AcDbText
 10
232.9393657585029
 20
334.4676160698368
 30
0.0
 40
6.0
  1
(1 651)
 50
90.0
 72
     4
 11
230.7701979549558
 21
347.7466065200414
 31
0.0
100
AcDbText
  0
TEXT
  5
1F496
330
1F
100
AcDbEntity
  8
0
100
AcDbText
 10
249.8321627967996
 20
246.4676160698367
 30
0.0
 40
7.0
  1
5' 11
 50
90.0
 72
     4
 11
246.3775243247668
 21
256.9174796441887
 31
0.0
100
AcDbText
  0
TEXT
  5
1F497
330
1F
100
AcDbEntity
  8
0
100
AcDbText
 10
266.3143657585028
 20
246.4676160698367
 30
0.0
 40
7.0
  1
5' 11"
 50
90.0
 72
     4
 11
262.8597272864701
 21
258.6531549511464
 31
0.0
100
AcDbText
  0
TEXT
  5
1F498
330
1F
100
AcDbEntity
  8
0
100
AcDbText
 10
223.1893657585029
 20
246.4676160698367
 30
0.0
 40
6.0
  1
(1 822)
 50
90.0
 72
     4
 11
221.0201979549558
 21
259.7466065200414
 31
0.0
100
AcDbText
  0
TEXT
  5
1F499
330
1F
100
AcDbEntity
  8
0
100
AcDbText
 10
232.9393657585029
 20
246.4676160698367
 30
0.0
 40
6.0
  1
(1 803)
 50
90.0
 72
     4
 11
230.7701979549558
 21
259.7466065200414
 31
0.0
100
AcDbText
  0
LINE
  5
1F49D
330
1F
100
AcDbEntity
  8
0
100
AcDbLine
 10
238.1893657585028
 20
768.2086433261517
 30
0.0
 11
579.2500687808867
 21
768.2086433261517
 31
0.0
  0
LINE
  5
1F49E
330
1F
100
AcDbEntity
  8
0
100
AcDbLine
 10
254.68487938666
 20
751.7131296979941
 30
0.0
 11
579.2500687808867
 21
751.7131296979941
 31
0.0
  0
LINE
  5
1F49F
330
1F
100
AcDbEntity
  8
0
100
AcDbLine
 10
271.1803930148172
 20
735.2176160698367
 30
0.0
 11
579.2500687808867
 21
735.2176160698367
 31
0.0
  0
TEXT
  5
1F4A0
330
1F
100
AcDbEntity
  8
0
100
AcDbText
 10
243.0643657585028
 20
756.5836433261514
 30
0.0
 40
6.75
  1
Opening
 72
     4
 11
260.890167259185
 21
759.0262592879522
 31
0.0
100
AcDbText
  0
TEXT
  5
1F4A1
330
1F
100
AcDbEntity
  8
0
100
AcDbText
 10
259.5643657585029
 20
740.0836433261517
 30
0.0
 40
6.75
  1
Frame
 72
     4
 11
273.1863814474524
 21
743.4033909387028
 31
0.0
100
AcDbText
  0
INSERT
  5
1F4A6
330
1F
100
AcDbEntity
  8
0
100
AcDbBlockReference
  2
342
 10
246.3202255525976
 20
690.6674796441887
 30
0.0
 41
96.0
 42
96.0
 43
96.0
 50
90.0
  0
INSERT
  5
1F4A7
330
1F
100
AcDbEntity
  8
0
100
AcDbBlockReference
  2
341
 10
246.3799117736072
 20
634.1981754149935
 30
0.0
 41
96.0
 42
96.0
 43
96.0
 50
90.0
  0
INSERT
  5
1F4A8
330
1F
100
AcDbEntity
  8
0
100
AcDbBlockReference
  2
341
 10
246.3918490178092
 20
500.1981754149936
 30
0.0
 41
96.0
 42
96.0
 43
96.0
 50
90.0
  0
INSERT
  5
1F4A9
330
1F
100
AcDbEntity
  8
0
100
AcDbBlockReference
  2
342
 10
246.3202255525976
 20
426.9174796441887
 30
0.0
 41
96.0
 42
96.0
 43
96.0
 50
90.0
  0
INSERT
  5
1F4AA
330
1F
100
AcDbEntity
  8
0
100
AcDbBlockReference
  2
341
 10
246.4395979946167
 20
342.1981754149935
 30
0.0
 41
96.0
 42
96.0
 43
96.0
 50
90.0
  0
LINE
  5
1F4AB
330
1F
100
AcDbEntity
  8
0
100
AcDbLine
 10
271.1893657585028
 20
121.2176160698367
 30
0.0
 11
271.1803930148172
 21
735.2176160698367
 31
0.0
  0
LINE
  5
1F4AC
330
1F
100
AcDbEntity
  8
0
100
AcDbLine
 10
254.6893657585028
 20
121.2176160698367
 30
0.0
 11
254.68487938666
 21
751.7131296979941
 31
0.0
  0
LINE
  5
1F4AD
330
1F
100
AcDbEntity
  8
0
100
AcDbLine
 10
238.1893657585028
 20
121.2176160698367
 30
0.0
 11
238.1893657585028
 21
768.2086433261517
 31
0.0
  0
INSERT
  5
1F4AE
330
1F
100
AcDbEntity
  8
0
100
AcDbBlockReference
  2
342
 10
246.3775243247668
 20
256.9174796441887
 30
0.0
 41
96.0
 42
96.0
 43
96.0
 50
90.0
  0
MTEXT
  5
1F78A
330
1F
100
AcDbEntity
  8
0
100
AcDbMText
 10
442.7500687808867
 20
128.2176160698371
 30
0.0
 40
6.75
 41
25.0
 71
     2
 72
     5
  1
2573
 73
     1
 44
1.0
1001
ACAD
1000
MTEXTBEGIN
1070
    73
1070
     1
1070
    44
1040
1.0
1070
    74
1070
     0
1000
MTEXTEND
  0
MTEXT
  5
1F78B
330
1F
100
AcDbEntity
  8
0
100
AcDbMText
 10
494.7500687808867
 20
128.2176160698371
 30
0.0
 40
6.75
 41
25.0
 71
     2
 72
     5
  1
2973
 73
     1
 44
1.0
1001
ACAD
1000
MTEXTBEGIN
1070
    73
1070
     1
1070
    44
1040
1.0
1070
    74
1070
     0
1000
MTEXTEND
  0
MTEXT
  5
1F78C
330
1F
100
AcDbEntity
  8
0
100
AcDbMText
 10
551.7500687808867
 20
128.2176160698371
 30
0.0
 40
6.75
 41
25.0
 71
     2
 72
     5
  1
3573
 73
     1
 44
1.0
1001
ACAD
1000
MTEXTBEGIN
1070
    73
1070
     1
1070
    44
1040
1.0
1070
    74
1070
     0
1000
MTEXTEND
  0
TEXT
  5
1F9F3
330
1F
100
AcDbEntity
  8
0
100
AcDbText
 10
232.9393657585029
 20
154.4676160698367
 30
0.0
 40
6.0
  1
(1 854)
 50
90.0
 72
     4
 11
230.7701979549558
 21
167.7466065200414
 31
0.0
100
AcDbText
  0
TEXT
  5
1F9F4
330
1F
100
AcDbEntity
  8
0
100
AcDbText
 10
223.1893657585029
 20
154.4676160698367
 30
0.0
 40
6.0
  1
(1 873)
 50
90.0
 72
     4
 11
221.0201979549558
 21
167.7466065200414
 31
0.0
100
AcDbText
  0
TEXT
  5
1F9F5
330
1F
100
AcDbEntity
  8
0
100
AcDbText
 10
266.3143657585028
 20
154.4676160698367
 30
0.0
 40
7.0
  1
6' 1"
 50
90.0
 72
     4
 11
262.8597272864701
 21
163.9338507219513
 31
0.0
100
AcDbText
  0
TEXT
  5
1F9F6
330
1F
100
AcDbEntity
  8
0
100
AcDbText
 10
249.8321627967996
 20
154.4676160698367
 30
0.0
 40
7.0
  1
6' 1
 50
90.0
 72
     4
 11
246.3775243247668
 21
162.1981754149936
 31
0.0
100
AcDbText
  0
INSERT
  5
1FA3F
330
1F
100
AcDbEntity
  8
0
100
AcDbBlockReference
  2
341
 10
246.3775243247668
 20
162.1981754149936
 30
0.0
 41
96.0
 42
96.0
 43
96.0
 50
90.0
  0
INSERT
  5
1FA55
330
1F
100
AcDbEntity
  8
0
100
AcDbBlockReference
  2
342
 10
246.3799117736072
 20
572.9174796441887
 30
0.0
 41
96.0
 42
96.0
 43
96.0
 50
90.0
  0
INSERT
  5
26458
330
1F
100
AcDbEntity
  8
0
100
AcDbBlockReference
  2
ASPCITT1747T
 10
294.2500687808867
 20
552.2176160698367
 30
0.0
  0
INSERT
  5
28B8C
330
1F
100
AcDbEntity
  8
0
100
AcDbBlockReference
  2
E
 10
570.9490689304892
 20
131.2176160698367
 30
0.0
 41
96.0
 42
96.0
 43
96.0
  0
INSERT
  5
28B8D
330
1F
100
AcDbEntity
  8
0
100
AcDbBlockReference
  2
E
 10
510.9490689304891
 20
131.2176160698367
 30
0.0
 41
96.0
 42
96.0
 43
96.0
  0
INSERT
  5
28B8E
330
1F
100
AcDbEntity
  8
0
100
AcDbBlockReference
  2
E2
 10
456.9490689304891
 20
131.2176160698367
 30
0.0
 41
96.0
 42
96.0
 43
96.0
  0
INSERT
  5
28E96
330
1F
100
AcDbEntity
  8
0
100
AcDbBlockReference
  2
ASPCITT1735T
 10
294.2500687808867
 20
680.2176160698366
 30
0.0
  0
INSERT
  5
28EA7
330
1F
100
AcDbEntity
  8
0
100
AcDbBlockReference
  2
ASPCITT1741T
 10
294.2500687808867
 20
619.2176160698367
 30
0.0
  0
INSERT
  5
28EB9
330
1F
100
AcDbEntity
  8
0
100
AcDbBlockReference
  2
ASPCICM1753T
 10
294.2500687808867
 20
479.2176160698367
 30
0.0
  0
INSERT
  5
28ECB
330
1F
100
AcDbEntity
  8
0
100
AcDbBlockReference
  2
ASPCICM1759T
 10
294.2500687808867
 20
400.2176160698367
 30
0.0
  0
INSERT
  5
28EDF
330
1F
100
AcDbEntity
  8
0
100
AcDbBlockReference
  2
ASPCICM1765T
 10
294.2500687808867
 20
315.2176160698367
 30
0.0
  0
INSERT
  5
28EEF
330
1F
100
AcDbEntity
  8
0
100
AcDbBlockReference
  2
ASPCICM2135T
 10
336.2500687808867
 20
680.2176160698366
 30
0.0
  0
INSERT
  5
28EFF
330
1F
100
AcDbEntity
  8
0
100
AcDbBlockReference
  2
ASPCICM2141T
 10
336.2500687808867
 20
619.2176160698367
 30
0.0
  0
INSERT
  5
28F0F
330
1F
100
AcDbEntity
  8
0
100
AcDbBlockReference
  2
ASPCICM2147T
 10
336.2500687808867
 20
552.2176160698367
 30
0.0
  0
INSERT
  5
28F22
330
1F
100
AcDbEntity
  8
0
100
AcDbBlockReference
  2
ASPCICM2153T
 10
336.2500687808867
 20
479.2176160698367
 30
0.0
  0
INSERT
  5
28F34
330
1F
100
AcDbEntity
  8
0
100
AcDbBlockReference
  2
ASPCICM2159T
 10
336.2500687808867
 20
400.2176160698367
 30
0.0
  0
INSERT
  5
28F48
330
1F
100
AcDbEntity
  8
0
100
AcDbBlockReference
  2
ASPCICM2165T
 10
336.2500687808867
 20
315.2176160698367
 30
0.0
  0
INSERT
  5
28F58
330
1F
100
AcDbEntity
  8
0
100
AcDbBlockReference
  2
ASPCICM2335T
 10
382.2500687808867
 20
680.2176160698366
 30
0.0
  0
INSERT
  5
28F68
330
1F
100
AcDbEntity
  8
0
100
AcDbBlockReference
  2
ASPCICM2341T
 10
382.2500687808867
 20
619.2176160698367
 30
0.0
  0
INSERT
  5
28F7A
330
1F
100
AcDbEntity
  8
0
100
AcDbBlockReference
  2
ASPCICM2353T
 10
382.2500687808867
 20
479.2176160698367
 30
0.0
  0
INSERT
  5
28F8A
330
1F
100
AcDbEntity
  8
0
100
AcDbBlockReference
  2
ASPCICM2347T
 10
382.2500687808867
 20
552.2176160698367
 30
0.0
  0
INSERT
  5
28F9C
330
1F
100
AcDbEntity
  8
0
100
AcDbBlockReference
  2
ASPCICM2359T
 10
382.2500687808867
 20
400.2176160698367
 30
0.0
  0
INSERT
  5
28FB0
330
1F
100
AcDbEntity
  8
0
100
AcDbBlockReference
  2
ASPCICM2365T
 10
382.2500687808867
 20
315.2176160698367
 30
0.0
  0
INSERT
  5
28FC0
330
1F
100
AcDbEntity
  8
0
100
AcDbBlockReference
  2
ASPCICM2535T
 10
430.2500687808867
 20
680.2176160698366
 30
0.0
  0
INSERT
  5
28FD0
330
1F
100
AcDbEntity
  8
0
100
AcDbBlockReference
  2
ASPCICM2541T
 10
430.2500687808867
 20
619.2176160698367
 30
0.0
  0
INSERT
  5
28FE0
330
1F
100
AcDbEntity
  8
0
100
AcDbBlockReference
  2
ASPCICM2547T
 10
430.2500687808867
 20
552.2176160698367
 30
0.0
  0
INSERT
  5
28FF2
330
1F
100
AcDbEntity
  8
0
100
AcDbBlockReference
  2
ASPCICM2553T
 10
430.2500687808867
 20
479.2176160698367
 30
0.0
  0
INSERT
  5
29004
330
1F
100
AcDbEntity
  8
0
100
AcDbBlockReference
  2
ASPCICM2559T
 10
430.2500687808867
 20
400.2176160698367
 30
0.0
  0
INSERT
  5
29018
330
1F
100
AcDbEntity
  8
0
100
AcDbBlockReference
  2
ASPCICM2565T
 10
430.2500687808867
 20
315.2176160698367
 30
0.0
  0
INSERT
  5
2902C
330
1F
100
AcDbEntity
  8
0
100
AcDbBlockReference
  2
ASPCICM2571T
 10
430.2500687808867
 20
224.2176160698367
 30
0.0
  0
INSERT
  5
29043
330
1F
100
AcDbEntity
  8
0
100
AcDbBlockReference
  2
ASPCICM2573T
 10
430.2500687808867
 20
131.2176160698367
 30
0.0
  0
INSERT
  5
29071
330
1F
100
AcDbEntity
  8
0
100
AcDbBlockReference
  2
ASPCICM3573T
 10
534.2500687808867
 20
131.2176160698367
 30
0.0
  0
INSERT
  5
2908D
330
1F
100
AcDbEntity
  8
0
100
AcDbBlockReference
  2
ASPCICM2973T
 10
480.2500687808867
 20
131.2176160698367
 30
0.0
  0
INSERT
  5
290B3
330
1F
100
AcDbEntity
  8
0
100
AcDbBlockReference
  2
ASPCICM3571T
 10
534.2500687808867
 20
224.2176160698367
 30
0.0
  0
INSERT
  5
290CC
330
1F
100
AcDbEntity
  8
0
100
AcDbBlockReference
  2
ASPCICM2971T
 10
480.2500687808867
 20
224.2176160698367
 30
0.0
  0
INSERT
  5
290F2
330
1F
100
AcDbEntity
  8
0
100
AcDbBlockReference
  2
ASPCICM3565T
 10
534.2500687808867
 20
315.2176160698367
 30
0.0
  0
INSERT
  5
2910B
330
1F
100
AcDbEntity
  8
0
100
AcDbBlockReference
  2
ASPCICM2965T
 10
480.2500687808867
 20
315.2176160698367
 30
0.0
  0
INSERT
  5
29129
330
1F
100
AcDbEntity
  8
0
100
AcDbBlockReference
  2
ASPCICM3559T
 10
534.2500687808867
 20
400.2176160698367
 30
0.0
  0
INSERT
  5
2913F
330
1F
100
AcDbEntity
  8
0
100
AcDbBlockReference
  2
ASPCICM2959T
 10
480.2500687808867
 20
400.2176160698367
 30
0.0
  0
INSERT
  5
29159
330
1F
100
AcDbEntity
  8
0
100
AcDbBlockReference
  2
ASPCICM3553T
 10
534.2500687808867
 20
479.2176160698367
 30
0.0
  0
INSERT
  5
2916F
330
1F
100
AcDbEntity
  8
0
100
AcDbBlockReference
  2
ASPCICM2953T
 10
480.2500687808867
 20
479.2176160698367
 30
0.0
  0
INSERT
  5
29185
330
1F
100
AcDbEntity
  8
0
100
AcDbBlockReference
  2
ASPCICM3547T
 10
534.2500687808867
 20
552.2176160698367
 30
0.0
  0
INSERT
  5
29198
330
1F
100
AcDbEntity
  8
0
100
AcDbBlockReference
  2
ASPCICM2947T
 10
480.2500687808867
 20
552.2176160698367
 30
0.0
  0
INSERT
  5
291AE
330
1F
100
AcDbEntity
  8
0
100
AcDbBlockReference
  2
ASPCICM3541T
 10
534.2500687808867
 20
619.2176160698367
 30
0.0
  0
INSERT
  5
291C1
330
1F
100
AcDbEntity
  8
0
100
AcDbBlockReference
  2
ASPCICM2941T
 10
480.2500687808867
 20
619.2176160698367
 30
0.0
  0
INSERT
  5
291D7
330
1F
100
AcDbEntity
  8
0
100
AcDbBlockReference
  2
ASPCICM3535T
 10
534.2500687808867
 20
680.2176160698366
 30
0.0
  0
INSERT
  5
291EA
330
1F
100
AcDbEntity
  8
0
100
AcDbBlockReference
  2
ASPCICM2935T
 10
480.2500687808867
 20
680.2176160698366
 30
0.0
  0
ENDSEC
  0
SECTION
  2
OBJECTS
  0
DICTIONARY
  5
C
330
0
100
AcDbDictionary
281
     1
  3
ACAD_COLOR
350
A6AD
  3
ACAD_GROUP
350
D
  3
ACAD_LAYOUT
350
1A
  3
ACAD_MATERIAL
350
A6AC
  3
ACAD_MLEADERSTYLE
350
28C40
  3
ACAD_MLINESTYLE
350
17
  3
ACAD_PLOTSETTINGS
350
19
  3
ACAD_PLOTSTYLENAME
350
E
  3
ACAD_SCALELIST
350
28C1E
  3
ACAD_TABLESTYLE
350
28C1C
  3
ACAD_VISUALSTYLE
350
28C0B
  3
AcadDim
350
15D
  3
ACDB_RECOMPOSE_DATA
350
28E72
  3
AcDbVariableDictionary
350
79D9
  3
ADE_QUERY_LIBRARY
350
1012
  3
AMAcad
350
1B9
  3
ASE_INDEX_DICTIONARY
350
133DF
  3
AVAT_FILE_STORE
350
FD6
  3
DWGPROPS
350
29F91
1001
ADE
1000
ADE02C004
1000
[Query]
1000
CaseSensitiveMatch=0
1000
SaveCurrQueryInSession=1
1000
MkSelSetWithQryObj=0
1000
ShowBlockAsInsPt=0
1000
CreateAssociativeHatchObjects=0
1000
ReferenceBoundaryForAreaLocation=1
1000
ShowImageAsBoundary=1
1000
DefaultJoinOperator=2
1000
ColorForAdd=red
1000
ColorForRemove=red
1000
BlockLocnForQuery=1
1000
TextLocnForQuery=1
1000
[Save Back]
1000
RedefineBlockDefinitions=1
1000
RedefineLayerDefinitions=1
1000
RedefineTextStyleDefinitions=1
1000
RemoveUnusedGroups=1
1000
EraseSavedBackObjects=1
1000
RemoveLockAfterSave=1
1000
CreateHistoryFileOfChanges=0
1000
CreateBackupFileOfSourceDwg=1
1000
DontAddObjectsToSaveSet=0
1000
MarkObjectsForEditingWithoutPrompting=0
1000
[Coordinate Transformation]
1000
RestoreLastActiveDwgsOnStartup=1
1000
ActivateDwgsOnAttach=1
1000
AdjustSizesAndScalesForChangesInUnits=1
1000
AdjustRotationsForMapDistortions=1
1000
AdjustSizesAndScalesForMapDistortions=1
1000
AdjustElevations=1
1000
AdjustZeroRotationObjects=1
1000
ReconnectDbOnWSOpen=1
1000
NoOfSQLConditionsInHistory=10
  0
DICTIONARY
  5
29223
330
8
100
AcDbDictionary
280
     1
281
     1
  0
DICTIONARY
  5
13579
330
2
100
AcDbDictionary
280
     1
281
     1
  3
ACAD_LAYERFILTERS
360
29233
  3
ACAD_LAYERSTATES
360
1357A
  3
ACLYDICTIONARY
360
29232
  0
DICTIONARY
  5
28E32
330
10
100
AcDbDictionary
280
     1
281
     1
  3
ADSK_XREC_LAYER_RECONCILED
360
28E33
  0
DICTIONARY
  5
28E36
330
1462C
100
AcDbDictionary
280
     1
281
     1
  0
DICTIONARY
  5
28E38
330
1462D
100
AcDbDictionary
280
     1
281
     1
  0
DICTIONARY
  5
28E3A
330
1462E
100
AcDbDictionary
280
     1
281
     1
  0
DICTIONARY
  5
28E4A
330
15439
100
AcDbDictionary
280
     1
281
     1
  0
DICTIONARY
  5
28E4C
330
19873
100
AcDbDictionary
280
     1
281
     1
  0
DICTIONARY
  5
28E86
330
28E85
100
AcDbDictionary
280
     1
281
     1
  0
DICTIONARY
  5
29993
330
29992
100
AcDbDictionary
280
     1
281
     1
  0
DICTIONARY
  5
12221
330
1F
100
AcDbDictionary
280
     1
281
     1
  0
DICTIONARY
  5
1F5D3
330
19861
100
AcDbDictionary
280
     1
281
     1
  3
ACAD_SORTENTS
360
1F5D4
  0
DICTIONARY
  5
2970A
330
263E7
100
AcDbDictionary
280
     1
281
     1
  3
ACAD_SORTENTS
360
29B32
  0
DICTIONARY
  5
28E92
330
28E87
100
AcDbDictionary
280
     1
281
     1
  3
ACAD_SORTENTS
360
299F0
  0
DICTIONARY
  5
28EA3
330
28E98
100
AcDbDictionary
280
     1
281
     1
  3
ACAD_SORTENTS
360
29B08
  0
DICTIONARY
  5
28EB5
330
28EA8
100
AcDbDictionary
280
     1
281
     1
  3
ACAD_SORTENTS
360
29C66
  0
DICTIONARY
  5
28EC7
330
28EBA
100
AcDbDictionary
280
     1
281
     1
  3
ACAD_SORTENTS
360
29D22
  0
DICTIONARY
  5
28EDB
330
28ECC
100
AcDbDictionary
280
     1
281
     1
  3
ACAD_SORTENTS
360
29D40
  0
DICTIONARY
  5
28EEB
330
28EE0
100
AcDbDictionary
280
     1
281
     1
  3
ACAD_SORTENTS
360
29A06
  0
DICTIONARY
  5
28EFB
330
28EF0
100
AcDbDictionary
280
     1
281
     1
  3
ACAD_SORTENTS
360
29AF2
  0
DICTIONARY
  5
28F0B
330
28F00
100
AcDbDictionary
280
     1
281
     1
  3
ACAD_SORTENTS
360
29B48
  0
DICTIONARY
  5
28F1E
330
28F11
100
AcDbDictionary
280
     1
281
     1
  3
ACAD_SORTENTS
360
29C4C
  0
DICTIONARY
  5
28F30
330
28F23
100
AcDbDictionary
280
     1
281
     1
  3
ACAD_SORTENTS
360
29D08
  0
DICTIONARY
  5
28F44
330
28F35
100
AcDbDictionary
280
     1
281
     1
  3
ACAD_SORTENTS
360
29D5E
  0
DICTIONARY
  5
28F54
330
28F49
100
AcDbDictionary
280
     1
281
     1
  3
ACAD_SORTENTS
360
29A1C
  0
DICTIONARY
  5
28F64
330
28F59
100
AcDbDictionary
280
     1
281
     1
  3
ACAD_SORTENTS
360
29ADC
  0
DICTIONARY
  5
28F76
330
28F69
100
AcDbDictionary
280
     1
281
     1
  3
ACAD_SORTENTS
360
29C32
  0
DICTIONARY
  5
28F86
330
28F7B
100
AcDbDictionary
280
     1
281
     1
  3
ACAD_SORTENTS
360
29B5E
  0
DICTIONARY
  5
28F98
330
28F8B
100
AcDbDictionary
280
     1
281
     1
  3
ACAD_SORTENTS
360
29CEE
  0
DICTIONARY
  5
28FAC
330
28F9D
100
AcDbDictionary
280
     1
281
     1
  3
ACAD_SORTENTS
360
29D7C
  0
DICTIONARY
  5
28FBC
330
28FB1
100
AcDbDictionary
280
     1
281
     1
  3
ACAD_SORTENTS
360
29A32
  0
DICTIONARY
  5
28FCC
330
28FC1
100
AcDbDictionary
280
     1
281
     1
  3
ACAD_SORTENTS
360
29AC6
  0
DICTIONARY
  5
28FDC
330
28FD1
100
AcDbDictionary
280
     1
281
     1
  3
ACAD_SORTENTS
360
29B74
  0
DICTIONARY
  5
28FEE
330
28FE1
100
AcDbDictionary
280
     1
281
     1
  3
ACAD_SORTENTS
360
29C18
  0
DICTIONARY
  5
29000
330
28FF3
100
AcDbDictionary
280
     1
281
     1
  3
ACAD_SORTENTS
360
29CD4
  0
DICTIONARY
  5
29014
330
29005
100
AcDbDictionary
280
     1
281
     1
  3
ACAD_SORTENTS
360
29D9A
  0
DICTIONARY
  5
29028
330
29019
100
AcDbDictionary
280
     1
281
     1
  3
ACAD_SORTENTS
360
29E8C
  0
DICTIONARY
  5
2903F
330
2902E
100
AcDbDictionary
280
     1
281
     1
  3
ACAD_SORTENTS
360
29EAE
  0
DICTIONARY
  5
2906D
330
29044
100
AcDbDictionary
280
     1
281
     1
  3
ACAD_SORTENTS
360
29F2E
  0
DICTIONARY
  5
29089
330
29072
100
AcDbDictionary
280
     1
281
     1
  3
ACAD_SORTENTS
360
29EDC
  0
DICTIONARY
  5
290AF
330
2908E
100
AcDbDictionary
280
     1
281
     1
  3
ACAD_SORTENTS
360
29E46
  0
DICTIONARY
  5
290C8
330
290B4
100
AcDbDictionary
280
     1
281
     1
  3
ACAD_SORTENTS
360
29E6E
  0
DICTIONARY
  5
290EE
330
290CD
100
AcDbDictionary
280
     1
281
     1
  3
ACAD_SORTENTS
360
29E04
  0
DICTIONARY
  5
29107
330
290F3
100
AcDbDictionary
280
     1
281
     1
  3
ACAD_SORTENTS
360
29DC2
  0
DICTIONARY
  5
29125
330
2910C
100
AcDbDictionary
280
     1
281
     1
  3
ACAD_SORTENTS
360
29C98
  0
DICTIONARY
  5
2913B
330
2912A
100
AcDbDictionary
280
     1
281
     1
  3
ACAD_SORTENTS
360
29CBA
  0
DICTIONARY
  5
29155
330
29140
100
AcDbDictionary
280
     1
281
     1
  3
ACAD_SORTENTS
360
29BDC
  0
DICTIONARY
  5
2916B
330
2915A
100
AcDbDictionary
280
     1
281
     1
  3
ACAD_SORTENTS
360
29BFE
  0
DICTIONARY
  5
29181
330
29170
100
AcDbDictionary
280
     1
281
     1
  3
ACAD_SORTENTS
360
29BB2
  0
DICTIONARY
  5
29194
330
29186
100
AcDbDictionary
280
     1
281
     1
  3
ACAD_SORTENTS
360
29B90
  0
DICTIONARY
  5
291AA
330
29199
100
AcDbDictionary
280
     1
281
     1
  3
ACAD_SORTENTS
360
29A94
  0
DICTIONARY
  5
291BD
330
291AF
100
AcDbDictionary
280
     1
281
     1
  3
ACAD_SORTENTS
360
29AB0
  0
DICTIONARY
  5
291D3
330
291C2
100
AcDbDictionary
280
     1
281
     1
  3
ACAD_SORTENTS
360
29A70
  0
DICTIONARY
  5
291E6
330
291D8
100
AcDbDictionary
280
     1
281
     1
  3
ACAD_SORTENTS
360
29A4E
  0
DICTIONARY
  5
A6AD
102
{ACAD_REACTORS
330
C
102
}
330
C
100
AcDbDictionary
281
     1
  0
DICTIONARY
  5
D
102
{ACAD_REACTORS
330
C
102
}
330
C
100
AcDbDictionary
281
     1
  0
DICTIONARY
  5
1A
102
{ACAD_REACTORS
330
C
102
}
330
C
100
AcDbDictionary
281
     1
  3
Layout1
350
1355A
  3
Model
350
22
  0
DICTIONARY
  5
A6AC
102
{ACAD_REACTORS
330
C
102
}
330
C
100
AcDbDictionary
281
     1
  3
ByBlock
350
28BFB
  3
ByLayer
350
28BF3
  3
Global
350
28C03
  0
DICTIONARY
  5
28C40
102
{ACAD_REACTORS
330
C
102
}
330
C
100
AcDbDictionary
281
     1
  3
Standard
350
29F6D
  0
DICTIONARY
  5
17
102
{ACAD_REACTORS
330
C
102
}
330
C
100
AcDbDictionary
281
     1
  3
Standard
350
18
  0
DICTIONARY
  5
19
102
{ACAD_REACTORS
330
C
102
}
330
C
100
AcDbDictionary
281
     1
  3
22x17 Xerox8830
350
CBD1
  3
22x34 Xerox8830
350
CBD0
  3
8.5x11(row 1)
350
B30E
  3
8.5x11(row 2)
350
BF67
  3
8.5x11(row 3)
350
BF68
  3
8.5x11(row 4)
350
BF69
  0
ACDBDICTIONARYWDFLT
  5
E
102
{ACAD_REACTORS
330
C
102
}
330
C
100
AcDbDictionary
281
     1
  3
Normal
350
F
100
AcDbDictionaryWithDefault
340
F
  0
DICTIONARY
  5
28C1E
102
{ACAD_REACTORS
330
C
102
}
330
C
100
AcDbDictionary
281
     1
  3
*A1
350
28C60
  3
*A2
350
28C61
  3
*A3
350
28C62
  3
*A4
350
28C63
  3
*A5
350
28C64
  3
A0
350
28C1F
  3
A1
350
28C20
  3
A2
350
28C21
  3
A3
350
28C22
  3
A4
350
28C23
  3
A5
350
28C24
  3
A6
350
28C25
  3
A7
350
28C26
  3
A8
350
28C27
  3
A9
350
28C28
  3
B0
350
28C29
  3
B1
350
28C2A
  3
B2
350
28C2B
  3
B3
350
28C2C
  3
B4
350
28C2D
  3
B5
350
28C2E
  3
B6
350
28C2F
  3
B7
350
28C30
  3
B8
350
28C31
  3
B9
350
28C32
  3
C0
350
28C33
  3
C1
350
28C34
  3
C2
350
28C35
  3
C3
350
28C36
  3
C4
350
28C37
  3
C5
350
28C38
  3
C6
350
28C39
  3
C7
350
28C3A
  3
C8
350
28C3B
  3
C9
350
28C3C
  3
D0
350
28C3D
  3
D1
350
28C3E
  3
D2
350
28C3F
  0
DICTIONARY
  5
28C1C
102
{ACAD_REACTORS
330
C
102
}
330
C
100
AcDbDictionary
281
     1
  3
Standard
350
28C1D
  0
DICTIONARY
  5
28C0B
102
{ACAD_REACTORS
330
C
102
}
330
C
100
AcDbDictionary
281
     1
  3
2dWireframe
350
28C11
  3
3D Hidden
350
28C13
  3
3dWireframe
350
28C12
  3
Basic
350
28C10
  3
Brighten
350
28C17
  3
ColorChange
350
28C1B
  3
Conceptual
350
28C14
  3
Dim
350
28C16
  3
Facepattern
350
28C1A
  3
Flat
350
28C0C
  3
FlatWithEdges
350
28C0D
  3
Gouraud
350
28C0E
  3
GouraudWithEdges
350
28C0F
  3
Linepattern
350
28C19
  3
Realistic
350
28C15
  3
Thicken
350
28C18
  0
XRECORD
  5
15D
102
{ACAD_REACTORS
330
C
102
}
330
C
100
AcDbXrecord
280
     1
 90
   990106
  3

 60
     0
 61
     0
 62
     1
 63
     3
 64
     0
 65
     0
 66
     0
 67
     3
 68
     0
 69
     0
 70
     0
 71
     0
 72
     0
 40
0.0
170
     2
340
0
  0
XRECORD
  5
28E72
102
{ACAD_REACTORS
330
C
102
}
330
C
100
AcDbXrecord
280
     1
 90
        1
330
28C1D
  0
DICTIONARY
  5
79D9
102
{ACAD_REACTORS
330
C
102
}
330
C
100
AcDbDictionary
281
     1
  3
CANNOSCALE
350
28E76
  3
CMLEADERSTYLE
350
28E74
  3
CTABLESTYLE
350
28E73
  3
DIMASSOC
350
79DA
  3
INDEXCTL
350
29F8F
  3
LIGHTINGUNITS
350
28E77
  3
MSLTSCALE
350
28E75
  3
PROJECTNAME
350
13601
  3
SORTENTS
350
29F8E
  0
DICTIONARY
  5
1012
102
{ACAD_REACTORS
330
C
102
}
330
C
100
AcDbDictionary
281
     1
  3
_CurrQry
350
1047
  0
DICTIONARY
  5
1B9
102
{ACAD_REACTORS
330
C
102
}
330
C
100
AcDbDictionary
281
     1
  3
AM_LOADER
350
1BA
  0
DICTIONARY
  5
133DF
102
{ACAD_REACTORS
330
C
102
}
330
C
100
AcDbDictionary
281
     1
  3
ASEBlockHierarchyIndexRecord
350
133E0
1001
DCO15
1040
1576390265.083
  0
DICTIONARY
  5
FD6
102
{ACAD_REACTORS
330
C
102
}
330
C
100
AcDbDictionary
281
     1
  0
XRECORD
  5
29F91
102
{ACAD_REACTORS
330
C
102
}
330
C
100
AcDbXrecord
280
     1
  1
DWGPROPS COOKIE
  2

  3

  4

  6

  7

  8
rohwertl
  9

300
=
301
=
302
=
303
=
304
=
305
=
306
=
307
=
308
=
309
=
 40
2.076430416666666
 41
2453620.458702304
 42
2455630.701150232
  1

 90
        0
  0
DICTIONARY
  5
29233
102
{ACAD_REACTORS
330
13579
102
}
330
13579
100
AcDbDictionary
281
     1
  0
DICTIONARY
  5
1357A
102
{ACAD_REACTORS
330
13579
102
}
330
13579
100
AcDbDictionary
281
     1
  0
DICTIONARY
  5
29232
102
{ACAD_REACTORS
330
13579
102
}
330
13579
100
AcDbDictionary
281
     1
1001
ACAD
1000
<All
  0
XRECORD
  5
28E33
102
{ACAD_REACTORS
330
28E32
102
}
330
28E32
100
AcDbXrecord
280
     1
290
     1
  0
SORTENTSTABLE
  5
1F5D4
102
{ACAD_REACTORS
330
1F5D3
102
}
330
1F5D3
100
AcDbSortentsTable
330
19861
  0
SORTENTSTABLE
  5
29B32
102
{ACAD_REACTORS
330
2970A
102
}
330
2970A
100
AcDbSortentsTable
330
263E7
331
29709
  5
29B31
331
29707
  5
29708
331
29705
  5
29706
331
29703
  5
29704
331
29708
  5
29709
331
29B31
  5
263EA
331
29706
  5
29707
331
29704
  5
29705
331
263F0
  5
29703
331
263EA
  5
263F0
  0
SORTENTSTABLE
  5
299F0
102
{ACAD_REACTORS
330
28E92
102
}
330
28E92
100
AcDbSortentsTable
330
28E87
331
28E88
  5
28E89
331
299E6
  5
28E88
331
28E91
  5
299E6
331
28E8F
  5
28E90
331
28E8D
  5
28E8E
331
28E89
  5
28E8A
331
28E90
  5
28E91
331
28E8E
  5
28E8F
331
28E8C
  5
28E8D
331
28E8A
  5
28E8C
  0
SORTENTSTABLE
  5
29B08
102
{ACAD_REACTORS
330
28EA3
102
}
330
28EA3
100
AcDbSortentsTable
330
28E98
331
28E99
  5
28E9A
331
29AFE
  5
28E99
331
28EA2
  5
29AFE
331
28EA0
  5
28EA1
331
28E9E
  5
28E9F
331
28E9A
  5
28E9B
331
28EA1
  5
28EA2
331
28E9F
  5
28EA0
331
28E9D
  5
28E9E
331
28E9B
  5
28E9D
  0
SORTENTSTABLE
  5
29C66
102
{ACAD_REACTORS
330
28EB5
102
}
330
28EB5
100
AcDbSortentsTable
330
28EA8
331
28EAA
  5
28EAB
331
28EB3
  5
28EB4
331
28EB1
  5
28EB2
331
28EAF
  5
28EB0
331
28EAD
  5
28EAE
331
28EAB
  5
28EAD
331
28EA9
  5
28EAA
331
28EB4
  5
29C65
331
28EB2
  5
28EB3
331
28EB0
  5
28EB1
331
28EAE
  5
28EAF
331
29C65
  5
28EA9
  0
SORTENTSTABLE
  5
29D22
102
{ACAD_REACTORS
330
28EC7
102
}
330
28EC7
100
AcDbSortentsTable
330
28EBA
331
28EBB
  5
28EBC
331
28EC6
  5
29D21
331
28EC4
  5
28EC5
331
28EC2
  5
28EC3
331
28EC0
  5
28EC1
331
28EBC
  5
28EBD
331
28EC5
  5
28EC6
331
28EC3
  5
28EC4
331
28EC1
  5
28EC2
331
28EBF
  5
28EC0
331
29D21
  5
28EBB
331
28EBD
  5
28EBF
  0
SORTENTSTABLE
  5
29D40
102
{ACAD_REACTORS
330
28EDB
102
}
330
28EDB
100
AcDbSortentsTable
330
28ECC
331
28ED9
  5
28EDA
331
28ED7
  5
28ED8
331
28ED5
  5
28ED6
331
28ED3
  5
28ED4
331
28ED1
  5
28ED2
331
28ECF
  5
28ED1
331
28ECD
  5
28ECE
331
29D3F
  5
28ECD
331
28EDA
  5
29D3F
331
28ED8
  5
28ED9
331
28ED6
  5
28ED7
331
28ED4
  5
28ED5
331
28ED2
  5
28ED3
331
28ECE
  5
28ECF
  0
SORTENTSTABLE
  5
29A06
102
{ACAD_REACTORS
330
28EEB
102
}
330
28EEB
100
AcDbSortentsTable
330
28EE0
331
28EE9
  5
28EEA
331
28EE6
  5
28EE7
331
28EE2
  5
28EE3
331
28EE7
  5
28EE8
331
28EEA
  5
299FC
331
28EE5
  5
28EE6
331
299FC
  5
28EE1
331
28EE8
  5
28EE9
331
28EE3
  5
28EE5
331
28EE1
  5
28EE2
  0
SORTENTSTABLE
  5
29AF2
102
{ACAD_REACTORS
330
28EFB
102
}
330
28EFB
100
AcDbSortentsTable
330
28EF0
331
28EF1
  5
28EF2
331
28EFA
  5
29AE8
331
28EF8
  5
28EF9
331
28EF6
  5
28EF7
331
28EF2
  5
28EF3
331
29AE8
  5
28EF1
331
28EF9
  5
28EFA
331
28EF7
  5
28EF8
331
28EF5
  5
28EF6
331
28EF3
  5
28EF5
  0
SORTENTSTABLE
  5
29B48
102
{ACAD_REACTORS
330
28F0B
102
}
330
28F0B
100
AcDbSortentsTable
330
28F00
331
28F02
  5
28F03
331
29B47
  5
28F01
331
28F09
  5
28F0A
331
28F07
  5
28F08
331
28F05
  5
28F06
331
28F03
  5
28F05
331
28F01
  5
28F02
331
28F0A
  5
29B47
331
28F08
  5
28F09
331
28F06
  5
28F07
  0
SORTENTSTABLE
  5
29C4C
102
{ACAD_REACTORS
330
28F1E
102
}
330
28F1E
100
AcDbSortentsTable
330
28F11
331
28F13
  5
28F14
331
29C4B
  5
28F12
331
28F1C
  5
28F1D
331
28F1A
  5
28F1B
331
28F18
  5
28F19
331
28F16
  5
28F17
331
28F14
  5
28F16
331
28F12
  5
28F13
331
28F1D
  5
29C4B
331
28F1B
  5
28F1C
331
28F19
  5
28F1A
331
28F17
  5
28F18
  0
SORTENTSTABLE
  5
29D08
102
{ACAD_REACTORS
330
28F30
102
}
330
28F30
100
AcDbSortentsTable
330
28F23
331
28F24
  5
28F25
331
28F2F
  5
29D07
331
29D07
  5
28F24
331
28F2D
  5
28F2E
331
28F2B
  5
28F2C
331
28F29
  5
28F2A
331
28F25
  5
28F26
331
28F2E
  5
28F2F
331
28F2C
  5
28F2D
331
28F2A
  5
28F2B
331
28F28
  5
28F29
331
28F26
  5
28F28
  0
SORTENTSTABLE
  5
29D5E
102
{ACAD_REACTORS
330
28F44
102
}
330
28F44
100
AcDbSortentsTable
330
28F35
331
28F42
  5
28F43
331
29D5D
  5
28F36
331
28F40
  5
28F41
331
28F3E
  5
28F3F
331
28F3C
  5
28F3D
331
28F3A
  5
28F3B
331
28F38
  5
28F3A
331
28F36
  5
28F37
331
28F43
  5
29D5D
331
28F41
  5
28F42
331
28F3F
  5
28F40
331
28F3D
  5
28F3E
331
28F3B
  5
28F3C
331
28F37
  5
28F38
  0
SORTENTSTABLE
  5
29A1C
102
{ACAD_REACTORS
330
28F54
102
}
330
28F54
100
AcDbSortentsTable
330
28F49
331
28F53
  5
29A12
331
28F51
  5
28F52
331
28F4F
  5
28F50
331
28F4B
  5
28F4C
331
29A12
  5
28F4A
331
28F52
  5
28F53
331
28F50
  5
28F51
331
28F4E
  5
28F4F
331
28F4C
  5
28F4E
331
28F4A
  5
28F4B
  0
SORTENTSTABLE
  5
29ADC
102
{ACAD_REACTORS
330
28F64
102
}
330
28F64
100
AcDbSortentsTable
330
28F59
331
28F60
  5
28F61
331
29AD2
  5
28F5A
331
28F5E
  5
28F5F
331
28F5C
  5
28F5E
331
28F63
  5
29AD2
331
28F5A
  5
28F5B
331
28F61
  5
28F62
331
28F5F
  5
28F60
331
28F5B
  5
28F5C
331
28F62
  5
28F63
  0
SORTENTSTABLE
  5
29C32
102
{ACAD_REACTORS
330
28F76
102
}
330
28F76
100
AcDbSortentsTable
330
28F69
331
28F71
  5
28F72
331
28F6F
  5
28F70
331
28F6B
  5
28F6C
331
28F74
  5
28F75
331
28F72
  5
28F73
331
28F70
  5
28F71
331
29C31
  5
28F6A
331
28F6E
  5
28F6F
331
28F6C
  5
28F6E
331
28F6A
  5
28F6B
331
28F75
  5
29C31
331
28F73
  5
28F74
  0
SORTENTSTABLE
  5
29B5E
102
{ACAD_REACTORS
330
28F86
102
}
330
28F86
100
AcDbSortentsTable
330
28F7B
331
28F82
  5
28F83
331
28F80
  5
28F81
331
28F7E
  5
28F80
331
28F7C
  5
28F7D
331
28F85
  5
29B5D
331
28F83
  5
28F84
331
28F81
  5
28F82
331
29B5D
  5
28F7C
331
28F7D
  5
28F7E
331
28F84
  5
28F85
  0
SORTENTSTABLE
  5
29CEE
102
{ACAD_REACTORS
330
28F98
102
}
330
28F98
100
AcDbSortentsTable
330
28F8B
331
28F93
  5
28F94
331
28F91
  5
28F92
331
28F8D
  5
28F8E
331
28F96
  5
28F97
331
28F94
  5
28F95
331
28F92
  5
28F93
331
29CED
  5
28F8C
331
28F90
  5
28F91
331
28F8E
  5
28F90
331
28F8C
  5
28F8D
331
28F97
  5
29CED
331
28F95
  5
28F96
  0
SORTENTSTABLE
  5
29D7C
102
{ACAD_REACTORS
330
28FAC
102
}
330
28FAC
100
AcDbSortentsTable
330
28F9D
331
28FA4
  5
28FA5
331
28FA2
  5
28FA3
331
28FA0
  5
28FA2
331
28F9E
  5
28F9F
331
28FAB
  5
29D7B
331
28FA9
  5
28FAA
331
28FA7
  5
28FA8
331
28FA5
  5
28FA6
331
28FA3
  5
28FA4
331
28F9F
  5
28FA0
331
28FAA
  5
28FAB
331
28FA8
  5
28FA9
331
29D7B
  5
28F9E
331
28FA6
  5
28FA7
  0
SORTENTSTABLE
  5
29A32
102
{ACAD_REACTORS
330
28FBC
102
}
330
28FBC
100
AcDbSortentsTable
330
28FB1
331
28FB3
  5
28FB4
331
28FBA
  5
28FBB
331
28FB8
  5
28FB9
331
28FB6
  5
28FB7
331
28FB4
  5
28FB6
331
28FB2
  5
28FB3
331
28FBB
  5
29A28
331
28FB9
  5
28FBA
331
29A28
  5
28FB2
331
28FB7
  5
28FB8
  0
SORTENTSTABLE
  5
29AC6
102
{ACAD_REACTORS
330
28FCC
102
}
330
28FCC
100
AcDbSortentsTable
330
28FC1
331
28FC6
  5
28FC7
331
28FC4
  5
28FC6
331
28FC2
  5
28FC3
331
28FCB
  5
29ABC
331
28FC9
  5
28FCA
331
28FC7
  5
28FC8
331
28FC3
  5
28FC4
331
29ABC
  5
28FC2
331
28FCA
  5
28FCB
331
28FC8
  5
28FC9
  0
SORTENTSTABLE
  5
29B74
102
{ACAD_REACTORS
330
28FDC
102
}
330
28FDC
100
AcDbSortentsTable
330
28FD1
331
28FD7
  5
28FD8
331
28FD3
  5
28FD4
331
28FDA
  5
28FDB
331
28FD8
  5
28FD9
331
29B73
  5
28FD2
331
28FD6
  5
28FD7
331
28FD4
  5
28FD6
331
28FDB
  5
29B73
331
28FD2
  5
28FD3
331
28FD9
  5
28FDA
  0
SORTENTSTABLE
  5
29C18
102
{ACAD_REACTORS
330
28FEE
102
}
330
28FEE
100
AcDbSortentsTable
330
28FE1
331
28FED
  5
29C17
331
28FEB
  5
28FEC
331
28FE9
  5
28FEA
331
28FE7
  5
28FE8
331
28FE3
  5
28FE4
331
28FEC
  5
28FED
331
28FEA
  5
28FEB
331
28FE8
  5
28FE9
331
28FE6
  5
28FE7
331
29C17
  5
28FE2
331
28FE4
  5
28FE6
331
28FE2
  5
28FE3
  0
SORTENTSTABLE
  5
29CD4
102
{ACAD_REACTORS
330
29000
102
}
330
29000
100
AcDbSortentsTable
330
28FF3
331
28FFE
  5
28FFF
331
28FFC
  5
28FFD
331
28FFA
  5
28FFB
331
28FF8
  5
28FF9
331
28FF6
  5
28FF8
331
28FF4
  5
28FF5
331
28FFF
  5
29CD3
331
28FFD
  5
28FFE
331
28FFB
  5
28FFC
331
28FF9
  5
28FFA
331
29CD3
  5
28FF4
331
28FF5
  5
28FF6
  0
SORTENTSTABLE
  5
29D9A
102
{ACAD_REACTORS
330
29014
102
}
330
29014
100
AcDbSortentsTable
330
29005
331
29013
  5
29D99
331
29011
  5
29012
331
2900F
  5
29010
331
2900D
  5
2900E
331
2900B
  5
2900C
331
29007
  5
29008
331
29012
  5
29013
331
29010
  5
29011
331
2900E
  5
2900F
331
2900C
  5
2900D
331
2900A
  5
2900B
331
29D99
  5
29006
331
29008
  5
2900A
331
29006
  5
29007
  0
SORTENTSTABLE
  5
29E8C
102
{ACAD_REACTORS
330
29028
102
}
330
29028
100
AcDbSortentsTable
330
29019
331
29024
  5
29025
331
29022
  5
29023
331
29020
  5
29021
331
2901E
  5
2901F
331
2901C
  5
2901E
331
2901A
  5
2901B
331
29027
  5
29E7E
331
29025
  5
29026
331
29023
  5
29024
331
29021
  5
29022
331
2901F
  5
29020
331
2901B
  5
2901C
331
29E7E
  5
2901A
331
29026
  5
29027
  0
SORTENTSTABLE
  5
29EAE
102
{ACAD_REACTORS
330
2903F
102
}
330
2903F
100
AcDbSortentsTable
330
2902E
331
29035
  5
29036
331
29033
  5
29034
331
29031
  5
29033
331
2902F
  5
29030
331
2903E
  5
29E9E
331
2903C
  5
2903D
331
29E9E
  5
2902F
331
2903A
  5
2903B
331
29038
  5
29039
331
29036
  5
29037
331
29034
  5
29035
331
29030
  5
29031
331
2903D
  5
2903E
331
2903B
  5
2903C
331
29039
  5
2903A
331
29037
  5
29038
  0
SORTENTSTABLE
  5
29F2E
102
{ACAD_REACTORS
330
2906D
102
}
330
2906D
100
AcDbSortentsTable
330
29044
331
29045
  5
29046
331
2904A
  5
2904B
331
2904F
  5
29050
331
2906A
  5
2906B
331
29065
  5
29066
331
29060
  5
29061
331
2905B
  5
2905C
331
29056
  5
29057
331
29051
  5
29052
331
29052
  5
29053
331
29046
  5
29047
331
2904B
  5
2904C
331
29F06
  5
29045
331
29066
  5
29067
331
2906B
  5
2906C
331
29061
  5
29062
331
2905C
  5
2905D
331
29057
  5
29058
331
2905D
  5
2905E
331
29062
  5
29063
331
29067
  5
29068
331
2906C
  5
29F06
331
2904C
  5
2904D
331
29047
  5
29049
331
29058
  5
29059
331
29053
  5
29054
331
29059
  5
2905A
331
29063
  5
29064
331
29068
  5
29069
331
2904D
  5
2904E
331
2905E
  5
2905F
331
29054
  5
29055
331
29050
  5
29051
331
29049
  5
2904A
331
2904E
  5
2904F
331
29069
  5
2906A
331
29064
  5
29065
331
2905F
  5
29060
331
2905A
  5
2905B
331
29055
  5
29056
  0
SORTENTSTABLE
  5
29EDC
102
{ACAD_REACTORS
330
29089
102
}
330
29089
100
AcDbSortentsTable
330
29072
331
2907B
  5
2907C
331
29086
  5
29087
331
29080
  5
29081
331
29075
  5
29077
331
29085
  5
29086
331
2907A
  5
2907B
331
29EC6
  5
29073
331
2907F
  5
29080
331
29074
  5
29075
331
29084
  5
29085
331
29079
  5
2907A
331
2907E
  5
2907F
331
29073
  5
29074
331
29083
  5
29084
331
29078
  5
29079
331
2907D
  5
2907E
331
29088
  5
29EC6
331
29077
  5
29078
331
29082
  5
29083
331
29087
  5
29088
331
2907C
  5
2907D
331
29081
  5
29082
  0
SORTENTSTABLE
  5
29E46
102
{ACAD_REACTORS
330
290AF
102
}
330
290AF
100
AcDbSortentsTable
330
2908E
331
29E26
  5
2908F
331
29098
  5
29099
331
2909A
  5
2909B
331
2909D
  5
2909E
331
2909F
  5
290A0
331
290A1
  5
290A2
331
290A3
  5
290A4
331
290A5
  5
290A6
331
290A8
  5
290A9
331
290AA
  5
290AB
331
290AC
  5
290AD
331
290AE
  5
29E26
331
2908F
  5
29090
331
290AD
  5
290AE
331
290AB
  5
290AC
331
290A9
  5
290AA
331
290A7
  5
290A8
331
290A6
  5
290A7
331
290A4
  5
290A5
331
290A2
  5
290A3
331
290A0
  5
290A1
331
2909E
  5
2909F
331
2909C
  5
2909D
331
2909B
  5
2909C
331
29099
  5
2909A
331
29097
  5
29098
331
29096
  5
29097
331
29095
  5
29096
331
29094
  5
29095
331
29093
  5
29094
331
29091
  5
29093
331
29090
  5
29091
  0
SORTENTSTABLE
  5
29E6E
102
{ACAD_REACTORS
330
290C8
102
}
330
290C8
100
AcDbSortentsTable
330
290B4
331
290C1
  5
290C2
331
290C0
  5
290C1
331
290BF
  5
290C0
331
29E5B
  5
290B5
331
290BE
  5
290BF
331
290BD
  5
290BE
331
290BC
  5
290BD
331
290BB
  5
290BC
331
290BA
  5
290BB
331
290B9
  5
290BA
331
290B7
  5
290B9
331
290B6
  5
290B7
331
290B5
  5
290B6
331
290C7
  5
29E5B
331
290C6
  5
290C7
331
290C5
  5
290C6
331
290C4
  5
290C5
331
290C3
  5
290C4
331
290C2
  5
290C3
  0
SORTENTSTABLE
  5
29E04
102
{ACAD_REACTORS
330
290EE
102
}
330
290EE
100
AcDbSortentsTable
330
290CD
331
290EA
  5
290EB
331
290EC
  5
290ED
331
290CE
  5
290CF
331
290D0
  5
290D2
331
290D2
  5
290D3
331
290D4
  5
290D5
331
290D6
  5
290D7
331
290D9
  5
290DA
331
290DB
  5
290DC
331
290DD
  5
290DE
331
290DF
  5
290E0
331
290E1
  5
290E2
331
290E3
  5
290E4
331
290E5
  5
290E6
331
290E7
  5
290E8
331
290E6
  5
290E7
331
290E4
  5
290E5
331
290E2
  5
290E3
331
290E0
  5
290E1
331
290DE
  5
290DF
331
290DC
  5
290DD
331
290DA
  5
290DB
331
290D8
  5
290D9
331
290D7
  5
290D8
331
290D5
  5
290D6
331
29DE4
  5
290CE
331
290D3
  5
290D4
331
290CF
  5
290D0
331
290ED
  5
29DE4
331
290EB
  5
290EC
331
290E9
  5
290EA
331
290E8
  5
290E9
  0
SORTENTSTABLE
  5
29DC2
102
{ACAD_REACTORS
330
29107
102
}
330
29107
100
AcDbSortentsTable
330
290F3
331
290FF
  5
29100
331
290FE
  5
290FF
331
290FD
  5
290FE
331
290FC
  5
290FD
331
290FB
  5
290FC
331
290FA
  5
290FB
331
290F9
  5
290FA
331
290F8
  5
290F9
331
290F6
  5
290F8
331
290F5
  5
290F6
331
290F4
  5
290F5
331
29106
  5
29DAF
331
29105
  5
29106
331
29104
  5
29105
331
29103
  5
29104
331
29102
  5
29103
331
29101
  5
29102
331
29100
  5
29101
331
29DAF
  5
290F4
  0
SORTENTSTABLE
  5
29C98
102
{ACAD_REACTORS
330
29125
102
}
330
29125
100
AcDbSortentsTable
330
2910C
331
2910D
  5
2910E
331
29122
  5
29123
331
2911F
  5
29120
331
2911C
  5
2911D
331
29119
  5
2911A
331
29116
  5
29117
331
29113
  5
29114
331
29114
  5
29115
331
2911D
  5
2911E
331
29123
  5
29124
331
29120
  5
29121
331
2911A
  5
2911B
331
29117
  5
29118
331
29111
  5
29112
331
2910E
  5
2910F
331
29112
  5
29113
331
29C97
  5
2910D
331
29118
  5
29119
331
2911E
  5
2911F
331
29121
  5
29122
331
29124
  5
29C97
331
2911B
  5
2911C
331
29115
  5
29116
331
2910F
  5
29111
  0
SORTENTSTABLE
  5
29CBA
102
{ACAD_REACTORS
330
2913B
102
}
330
2913B
100
AcDbSortentsTable
330
2912A
331
29132
  5
29133
331
29130
  5
29131
331
29CB9
  5
2912B
331
2912C
  5
2912D
331
29139
  5
2913A
331
29137
  5
29138
331
29135
  5
29136
331
29133
  5
29134
331
29131
  5
29132
331
2912F
  5
29130
331
2912D
  5
2912F
331
2912B
  5
2912C
331
2913A
  5
29CB9
331
29138
  5
29139
331
29136
  5
29137
331
29134
  5
29135
  0
SORTENTSTABLE
  5
29BDC
102
{ACAD_REACTORS
330
29155
102
}
330
29155
100
AcDbSortentsTable
330
29140
331
2914C
  5
2914D
331
29151
  5
29152
331
29147
  5
29148
331
29142
  5
29143
331
2914A
  5
2914B
331
2914F
  5
29150
331
29145
  5
29146
331
29154
  5
29BDB
331
29BDB
  5
29141
331
29148
  5
29149
331
29152
  5
29153
331
2914D
  5
2914E
331
29143
  5
29145
331
29141
  5
29142
331
2914B
  5
2914C
331
29150
  5
29151
331
29146
  5
29147
331
2914E
  5
2914F
331
29153
  5
29154
331
29149
  5
2914A
  0
SORTENTSTABLE
  5
29BFE
102
{ACAD_REACTORS
330
2916B
102
}
330
2916B
100
AcDbSortentsTable
330
2915A
331
2915D
  5
2915F
331
2915B
  5
2915C
331
29BFD
  5
2915B
331
2916A
  5
29BFD
331
29168
  5
29169
331
29166
  5
29167
331
29164
  5
29165
331
29162
  5
29163
331
29160
  5
29161
331
2915C
  5
2915D
331
29169
  5
2916A
331
29167
  5
29168
331
29165
  5
29166
331
29163
  5
29164
331
29161
  5
29162
331
2915F
  5
29160
  0
SORTENTSTABLE
  5
29BB2
102
{ACAD_REACTORS
330
29181
102
}
330
29181
100
AcDbSortentsTable
330
29170
331
2917F
  5
29180
331
2917D
  5
2917E
331
2917B
  5
2917C
331
29179
  5
2917A
331
29177
  5
29178
331
29175
  5
29176
331
29173
  5
29175
331
29171
  5
29172
331
29180
  5
29BB1
331
2917E
  5
2917F
331
2917C
  5
2917D
331
2917A
  5
2917B
331
29178
  5
29179
331
29BB1
  5
29171
331
29176
  5
29177
331
29172
  5
29173
  0
SORTENTSTABLE
  5
29B90
102
{ACAD_REACTORS
330
29194
102
}
330
29194
100
AcDbSortentsTable
330
29186
331
29B8F
  5
29187
331
29190
  5
29191
331
2918E
  5
2918F
331
2918C
  5
2918D
331
29188
  5
29189
331
29193
  5
29B8F
331
29191
  5
29192
331
2918F
  5
29190
331
2918D
  5
2918E
331
2918B
  5
2918C
331
29189
  5
2918B
331
29187
  5
29188
331
29192
  5
29193
  0
SORTENTSTABLE
  5
29A94
102
{ACAD_REACTORS
330
291AA
102
}
330
291AA
100
AcDbSortentsTable
330
29199
331
291A1
  5
291A2
331
2919F
  5
291A0
331
2919B
  5
2919C
331
291A8
  5
291A9
331
291A6
  5
291A7
331
291A4
  5
291A5
331
291A2
  5
291A3
331
291A0
  5
291A1
331
2919E
  5
2919F
331
2919C
  5
2919E
331
2919A
  5
2919B
331
291A9
  5
29A93
331
291A7
  5
291A8
331
291A5
  5
291A6
331
29A93
  5
2919A
331
291A3
  5
291A4
  0
SORTENTSTABLE
  5
29AB0
102
{ACAD_REACTORS
330
291BD
102
}
330
291BD
100
AcDbSortentsTable
330
291AF
331
291BB
  5
291BC
331
291B2
  5
291B4
331
291B9
  5
291BA
331
291B0
  5
291B1
331
291B7
  5
291B8
331
291B5
  5
291B6
331
291BC
  5
29AA3
331
291BA
  5
291BB
331
291B1
  5
291B2
331
29AA3
  5
291B0
331
291B8
  5
291B9
331
291B6
  5
291B7
331
291B4
  5
291B5
  0
SORTENTSTABLE
  5
29A70
102
{ACAD_REACTORS
330
291D3
102
}
330
291D3
100
AcDbSortentsTable
330
291C2
331
29A60
  5
291C3
331
291CC
  5
291CD
331
291CA
  5
291CB
331
291C8
  5
291C9
331
291C4
  5
291C5
331
291D1
  5
291D2
331
291CF
  5
291D0
331
291CD
  5
291CE
331
291CB
  5
291CC
331
291C9
  5
291CA
331
291C7
  5
291C8
331
291C5
  5
291C7
331
291C3
  5
291C4
331
291D2
  5
29A60
331
291D0
  5
291D1
331
291CE
  5
291CF
  0
SORTENTSTABLE
  5
29A4E
102
{ACAD_REACTORS
330
291E6
102
}
330
291E6
100
AcDbSortentsTable
330
291D8
331
291DD
  5
291DE
331
291DB
  5
291DD
331
291D9
  5
291DA
331
291E4
  5
291E5
331
291E2
  5
291E3
331
291E0
  5
291E1
331
291DE
  5
291DF
331
291DA
  5
291DB
331
291E5
  5
29A41
331
291E3
  5
291E4
331
291E1
  5
291E2
331
29A41
  5
291D9
331
291DF
  5
291E0
  0
LAYOUT
  5
1355A
102
{ACAD_XDICTIONARY
360
29FA0
102
}
102
{ACAD_REACTORS
330
1A
102
}
330
1A
100
AcDbPlotSettings
  1

  2
\\pelsprnt01\PEASP5
  4

  6

 40
0.0
 41
0.0
 42
0.0
 43
0.0
 44
0.0
 45
0.0
 46
0.0
 47
0.0
 48
0.0
 49
0.0
140
0.0
141
0.0
142
1.0
143
1.0
 70
   688
 72
     0
 73
     0
 74
     5
  7
PellaCAD 2000.ctb
 75
    16
147
1.0
148
0.0
149
0.0
100
AcDbLayout
  1
Layout1
 70
     1
 71
     1
 10
0.0
 20
0.0
 11
12.0
 21
9.0
 12
0.0
 22
0.0
 32
0.0
 14
0.0
 24
0.0
 34
0.0
 15
0.0
 25
0.0
 35
0.0
146
0.0
 13
0.0
 23
0.0
 33
0.0
 16
1.0
 26
0.0
 36
0.0
 17
0.0
 27
1.0
 37
0.0
 76
     0
330
13559
  0
LAYOUT
  5
22
102
{ACAD_XDICTIONARY
360
29F92
102
}
102
{ACAD_REACTORS
330
1A
102
}
330
1A
100
AcDbPlotSettings
  1

  2

  4

  6

 40
0.0
 41
0.0
 42
0.0
 43
0.0
 44
0.0
 45
0.0
 46
0.0
 47
0.0
 48
0.0
 49
0.0
140
0.0
141
0.0
142
1.0
143
1.0
 70
  1712
 72
     0
 73
     0
 74
     0
  7

 75
     0
147
1.0
148
0.0
149
0.0
100
AcDbLayout
  1
Model
 70
     1
 71
     0
 10
0.0
 20
0.0
 11
12.0
 21
9.0
 12
0.0
 22
0.0
 32
0.0
 14
0.0
 24
0.0
 34
0.0
 15
0.0
 25
0.0
 35
0.0
146
0.0
 13
0.0
 23
0.0
 33
0.0
 16
1.0
 26
0.0
 36
0.0
 17
0.0
 27
1.0
 37
0.0
 76
     0
330
1F
331
28BDD
  0
MATERIAL
  5
28BFB
102
{ACAD_XDICTIONARY
360
28BFC
102
}
102
{ACAD_REACTORS
330
A6AC
102
}
330
A6AC
100
AcDbMaterial
  1
ByBlock
 72
     0
 43
0.0208333333333333
 43
0.0
 43
0.0
 43
0.0
 43
0.0
 43
0.0208333333333333
 43
0.0
 43
0.0
 43
0.0
 43
0.0
 43
1.0
 43
0.0
 43
0.0
 43
0.0
 43
0.0
 43
1.0
 77
     0
 47
0.0208333333333333
 47
0.0
 47
0.0
 47
0.0
 47
0.0
 47
0.0208333333333333
 47
0.0
 47
0.0
 47
0.0
 47
0.0
 47
1.0
 47
0.0
 47
0.0
 47
0.0
 47
0.0
 47
1.0
171
     0
 49
0.0208333333333333
 49
0.0
 49
0.0
 49
0.0
 49
0.0
 49
0.0208333333333333
 49
0.0
 49
0.0
 49
0.0
 49
0.0
 49
1.0
 49
0.0
 49
0.0
 49
0.0
 49
0.0
 49
1.0
175
     0
142
0.0208333333333333
142
0.0
142
0.0
142
0.0
142
0.0
142
0.0208333333333333
142
0.0
142
0.0
142
0.0
142
0.0
142
1.0
142
0.0
142
0.0
142
0.0
142
0.0
142
1.0
179
     0
144
0.0208333333333333
144
0.0
144
0.0
144
0.0
144
0.0
144
0.0208333333333333
144
0.0
144
0.0
144
0.0
144
0.0
144
1.0
144
0.0
144
0.0
144
0.0
144
0.0
144
1.0
147
0.0208333333333333
147
0.0
147
0.0
147
0.0
147
0.0
147
0.0208333333333333
147
0.0
147
0.0
147
0.0
147
0.0
147
1.0
147
0.0
147
0.0
147
0.0
147
0.0
147
1.0
  0
MATERIAL
  5
28BF3
102
{ACAD_XDICTIONARY
360
28BF4
102
}
102
{ACAD_REACTORS
330
A6AC
102
}
330
A6AC
100
AcDbMaterial
  1
ByLayer
 72
     0
 43
0.0208333333333333
 43
0.0
 43
0.0
 43
0.0
 43
0.0
 43
0.0208333333333333
 43
0.0
 43
0.0
 43
0.0
 43
0.0
 43
1.0
 43
0.0
 43
0.0
 43
0.0
 43
0.0
 43
1.0
 77
     0
 47
0.0208333333333333
 47
0.0
 47
0.0
 47
0.0
 47
0.0
 47
0.0208333333333333
 47
0.0
 47
0.0
 47
0.0
 47
0.0
 47
1.0
 47
0.0
 47
0.0
 47
0.0
 47
0.0
 47
1.0
171
     0
 49
0.0208333333333333
 49
0.0
 49
0.0
 49
0.0
 49
0.0
 49
0.0208333333333333
 49
0.0
 49
0.0
 49
0.0
 49
0.0
 49
1.0
 49
0.0
 49
0.0
 49
0.0
 49
0.0
 49
1.0
175
     0
142
0.0208333333333333
142
0.0
142
0.0
142
0.0
142
0.0
142
0.0208333333333333
142
0.0
142
0.0
142
0.0
142
0.0
142
1.0
142
0.0
142
0.0
142
0.0
142
0.0
142
1.0
179
     0
144
0.0208333333333333
144
0.0
144
0.0
144
0.0
144
0.0
144
0.0208333333333333
144
0.0
144
0.0
144
0.0
144
0.0
144
1.0
144
0.0
144
0.0
144
0.0
144
0.0
144
1.0
147
0.0208333333333333
147
0.0
147
0.0
147
0.0
147
0.0
147
0.0208333333333333
147
0.0
147
0.0
147
0.0
147
0.0
147
1.0
147
0.0
147
0.0
147
0.0
147
0.0
147
1.0
  0
MATERIAL
  5
28C03
102
{ACAD_XDICTIONARY
360
28C04
102
}
102
{ACAD_REACTORS
330
A6AC
102
}
330
A6AC
100
AcDbMaterial
  1
Global
 72
     0
 43
0.0208333333333333
 43
0.0
 43
0.0
 43
0.0
 43
0.0
 43
0.0208333333333333
 43
0.0
 43
0.0
 43
0.0
 43
0.0
 43
1.0
 43
0.0
 43
0.0
 43
0.0
 43
0.0
 43
1.0
 77
     0
 47
0.0208333333333333
 47
0.0
 47
0.0
 47
0.0
 47
0.0
 47
0.0208333333333333
 47
0.0
 47
0.0
 47
0.0
 47
0.0
 47
1.0
 47
0.0
 47
0.0
 47
0.0
 47
0.0
 47
1.0
171
     0
 49
0.0208333333333333
 49
0.0
 49
0.0
 49
0.0
 49
0.0
 49
0.0208333333333333
 49
0.0
 49
0.0
 49
0.0
 49
0.0
 49
1.0
 49
0.0
 49
0.0
 49
0.0
 49
0.0
 49
1.0
175
     0
142
0.0208333333333333
142
0.0
142
0.0
142
0.0
142
0.0
142
0.0208333333333333
142
0.0
142
0.0
142
0.0
142
0.0
142
1.0
142
0.0
142
0.0
142
0.0
142
0.0
142
1.0
179
     0
144
0.0208333333333333
144
0.0
144
0.0
144
0.0
144
0.0
144
0.0208333333333333
144
0.0
144
0.0
144
0.0
144
0.0
144
1.0
144
0.0
144
0.0
144
0.0
144
0.0
144
1.0
147
0.0208333333333333
147
0.0
147
0.0
147
0.0
147
0.0
147
0.0208333333333333
147
0.0
147
0.0
147
0.0
147
0.0
147
1.0
147
0.0
147
0.0
147
0.0
147
0.0
147
1.0
  0
MLEADERSTYLE
  5
29F6D
102
{ACAD_REACTORS
330
28C40
102
}
330
28C40
100
AcDbMLeaderStyle
170
     2
171
     1
172
     0
 90
        2
 40
0.0
 41
0.0
173
     1
 91
-1056964608
340
14
 92
       -2
290
     1
 42
0.09
291
     1
 43
0.36
  3
Standard
 44
0.18
300

342
11
174
     1
178
     6
175
     1
176
     0
 93
-1056964608
 45
0.18
292
     0
297
     0
 46
0.18
 94
-1056964608
 47
1.0
 49
1.0
140
1.0
293
     1
141
0.0
294
     1
177
     0
142
1.0
295
     0
296
     0
143
0.125
1001
ACAD_MLEADERVER
1070
     2
  0
MLINESTYLE
  5
18
102
{ACAD_REACTORS
330
17
102
}
330
17
100
AcDbMlineStyle
  2
STANDARD
 70
     0
  3

 62
   256
 51
90.0
 52
90.0
 71
     2
 49
0.5
 62
   256
  6
BYLAYER
 49
-0.5
 62
   256
  6
BYLAYER
  0
PLOTSETTINGS
  5
CBD1
102
{ACAD_XDICTIONARY
360
29F9E
102
}
102
{ACAD_REACTORS
330
19
102
}
330
19
100
AcDbPlotSettings
  1
22x17 Xerox8830
  2
Xes 8830 for 2004.pc3
  4
ANSI_C_(22.00_x_17.00_Inches)
  6

 40
6.793749809265136
 41
6.793749809265136
 42
6.79376220703125
 43
6.79376220703125
 44
558.7999877929687
 45
431.7999877929687
 46
0.0
 47
35.81399999999999
 48
0.0
 49
0.0
140
0.0
141
0.0
142
1.0
143
1.49524349949159
 70
   692
 72
     0
 73
     0
 74
     1
  7
PellaCAD 2000.ctb
 75
     0
147
0.6687873917124656
148
-21.59157886640523
149
-6.230335335960706
  0
PLOTSETTINGS
  5
CBD0
102
{ACAD_XDICTIONARY
360
29F9C
102
}
102
{ACAD_REACTORS
330
19
102
}
330
19
100
AcDbPlotSettings
  1
22x34 Xerox8830
  2
Xes 8830 for 2004.pc3
  4
ANSI_D_(22.00_x_34.00_Inches)
  6

 40
6.793749809265136
 41
6.793749809265136
 42
6.79376220703125
 43
6.79376220703125
 44
558.7999877929687
 45
863.5999755859375
 46
13.462
 47
17.272
 48
0.0
 49
0.0
140
0.0
141
0.0
142
1.0
143
1.0
 70
   692
 72
     0
 73
     1
 74
     1
  7
PellaCAD 2000.ctb
 75
    16
147
1.0
148
-21.59157886640523
149
-6.230335335960706
  0
PLOTSETTINGS
  5
B30E
102
{ACAD_XDICTIONARY
360
29F94
102
}
102
{ACAD_REACTORS
330
19
102
}
330
19
100
AcDbPlotSettings
  1
8.5x11(row 1)
  2
\\pelsprnt02\PECSP13
  4
Letter
  6

 40
7.143749713897705
 41
5.027085304260253
 42
7.14373779296875
 43
5.027069091796875
 44
215.8999938964844
 45
279.3999938964844
 46
2.285999999999999
 47
3.556
 48
0.0
 49
0.0
140
0.0
141
0.0
142
1.0
143
1.0
 70
   692
 72
     0
 73
     0
 74
     1
  7
PellaCAD 2000.ctb
 75
    16
147
1.0
148
-4.158432903504825
149
-3.617288020760524
  0
PLOTSETTINGS
  5
BF67
102
{ACAD_XDICTIONARY
360
29F96
102
}
102
{ACAD_REACTORS
330
19
102
}
330
19
100
AcDbPlotSettings
  1
8.5x11(row 2)
  2
\\pelsprnt01\PEASP5
  4
User144
  6

 40
6.349999904632568
 41
4.233341693878173
 42
6.349990844726562
 43
4.23333740234375
 44
215.8999938964844
 45
279.3999938964844
 46
3.047999999999999
 47
4.318
 48
0.0
 49
0.0
140
0.0
141
0.0
142
1.0
143
1.0
 70
   692
 72
     0
 73
     0
 74
     1
  7
PellaCAD 2000.ctb
 75
    16
147
1.0
148
-4.158432903504825
149
-3.617288020760524
  0
PLOTSETTINGS
  5
BF68
102
{ACAD_XDICTIONARY
360
29F98
102
}
102
{ACAD_REACTORS
330
19
102
}
330
19
100
AcDbPlotSettings
  1
8.5x11(row 3)
  2
\\pelsprnt01\peslp0
  4
Letter
  6

 40
5.365749835968017
 41
5.408084392547607
 42
5.4080810546875
 43
5.365753173828125
 44
215.8999938964844
 45
279.3999938964844
 46
4.064
 47
3.302
 48
0.0
 49
0.0
140
0.0
141
0.0
142
1.0
143
1.0
 70
   692
 72
     0
 73
     0
 74
     1
  7
PellaCAD 2000.ctb
 75
    16
147
1.0
148
-4.158432903504825
149
-3.617288020760524
  0
PLOTSETTINGS
  5
BF69
102
{ACAD_XDICTIONARY
360
29F9A
102
}
102
{ACAD_REACTORS
330
19
102
}
330
19
100
AcDbPlotSettings
  1
8.5x11(row 4)
  2
\\pelsprnt02\PEASP6
  4
Letter
  6

 40
7.143749713897705
 41
5.027085304260253
 42
7.14373779296875
 43
5.027069091796875
 44
215.8999938964844
 45
279.3999938964844
 46
2.285999999999999
 47
3.556
 48
0.0
 49
0.0
140
0.0
141
0.0
142
1.0
143
1.0
 70
   692
 72
     0
 73
     0
 74
     1
  7
PellaCAD 2000.ctb
 75
    16
147
1.0
148
-4.158432903504825
149
-3.617288020760524
  0
ACDBPLACEHOLDER
  5
F
102
{ACAD_REACTORS
330
E
102
}
330
E
  0
SCALE
  5
28C60
102
{ACAD_REACTORS
330
28C1E
102
}
330
28C1E
100
AcDbScale
 70
     0
300
1.5:1
140
1.0
141
1.0
290
     0
  0
SCALE
  5
28C61
102
{ACAD_REACTORS
330
28C1E
102
}
330
28C1E
100
AcDbScale
 70
     0
300
3:1
140
3.0
141
1.0
290
     0
  0
SCALE
  5
28C62
102
{ACAD_REACTORS
330
28C1E
102
}
330
28C1E
100
AcDbScale
 70
     0
300
5:1
140
5.0
141
1.0
290
     0
  0
SCALE
  5
28C63
102
{ACAD_REACTORS
330
28C1E
102
}
330
28C1E
100
AcDbScale
 70
     0
300
1 1/2" = 1'-0"_XREF
140
1.5
141
12.0
290
     0
  0
SCALE
  5
28C64
102
{ACAD_REACTORS
330
28C1E
102
}
330
28C1E
100
AcDbScale
 70
     0
300
1" = 1'
140
1.0
141
1.0
290
     0
  0
SCALE
  5
28C1F
102
{ACAD_REACTORS
330
28C1E
102
}
330
28C1E
100
AcDbScale
 70
     0
300
1:1
140
1.0
141
1.0
290
     1
  0
SCALE
  5
28C20
102
{ACAD_REACTORS
330
28C1E
102
}
330
28C1E
100
AcDbScale
 70
     0
300
1:2
140
1.0
141
2.0
290
     0
  0
SCALE
  5
28C21
102
{ACAD_REACTORS
330
28C1E
102
}
330
28C1E
100
AcDbScale
 70
     0
300
1:4
140
1.0
141
4.0
290
     0
  0
SCALE
  5
28C22
102
{ACAD_REACTORS
330
28C1E
102
}
330
28C1E
100
AcDbScale
 70
     0
300
1:5
140
1.0
141
5.0
290
     0
  0
SCALE
  5
28C23
102
{ACAD_REACTORS
330
28C1E
102
}
330
28C1E
100
AcDbScale
 70
     0
300
1:8
140
1.0
141
8.0
290
     0
  0
SCALE
  5
28C24
102
{ACAD_REACTORS
330
28C1E
102
}
330
28C1E
100
AcDbScale
 70
     0
300
1:10
140
1.0
141
10.0
290
     0
  0
SCALE
  5
28C25
102
{ACAD_REACTORS
330
28C1E
102
}
330
28C1E
100
AcDbScale
 70
     0
300
1:16
140
1.0
141
16.0
290
     0
  0
SCALE
  5
28C26
102
{ACAD_REACTORS
330
28C1E
102
}
330
28C1E
100
AcDbScale
 70
     0
300
1:20
140
1.0
141
20.0
290
     0
  0
SCALE
  5
28C27
102
{ACAD_REACTORS
330
28C1E
102
}
330
28C1E
100
AcDbScale
 70
     0
300
1:30
140
1.0
141
30.0
290
     0
  0
SCALE
  5
28C28
102
{ACAD_REACTORS
330
28C1E
102
}
330
28C1E
100
AcDbScale
 70
     0
300
1:40
140
1.0
141
40.0
290
     0
  0
SCALE
  5
28C29
102
{ACAD_REACTORS
330
28C1E
102
}
330
28C1E
100
AcDbScale
 70
     0
300
1:50
140
1.0
141
50.0
290
     0
  0
SCALE
  5
28C2A
102
{ACAD_REACTORS
330
28C1E
102
}
330
28C1E
100
AcDbScale
 70
     0
300
1:100
140
1.0
141
100.0
290
     0
  0
SCALE
  5
28C2B
102
{ACAD_REACTORS
330
28C1E
102
}
330
28C1E
100
AcDbScale
 70
     0
300
2:1
140
2.0
141
1.0
290
     0
  0
SCALE
  5
28C2C
102
{ACAD_REACTORS
330
28C1E
102
}
330
28C1E
100
AcDbScale
 70
     0
300
4:1
140
4.0
141
1.0
290
     0
  0
SCALE
  5
28C2D
102
{ACAD_REACTORS
330
28C1E
102
}
330
28C1E
100
AcDbScale
 70
     0
300
8:1
140
8.0
141
1.0
290
     0
  0
SCALE
  5
28C2E
102
{ACAD_REACTORS
330
28C1E
102
}
330
28C1E
100
AcDbScale
 70
     0
300
10:1
140
10.0
141
1.0
290
     0
  0
SCALE
  5
28C2F
102
{ACAD_REACTORS
330
28C1E
102
}
330
28C1E
100
AcDbScale
 70
     0
300
100:1
140
100.0
141
1.0
290
     0
  0
SCALE
  5
28C30
102
{ACAD_REACTORS
330
28C1E
102
}
330
28C1E
100
AcDbScale
 70
     0
300
1/128" = 1'-0"
140
0.0078125
141
12.0
290
     0
  0
SCALE
  5
28C31
102
{ACAD_REACTORS
330
28C1E
102
}
330
28C1E
100
AcDbScale
 70
     0
300
1/64" = 1'-0"
140
0.015625
141
12.0
290
     0
  0
SCALE
  5
28C32
102
{ACAD_REACTORS
330
28C1E
102
}
330
28C1E
100
AcDbScale
 70
     0
300
1/32" = 1'-0"
140
0.03125
141
12.0
290
     0
  0
SCALE
  5
28C33
102
{ACAD_REACTORS
330
28C1E
102
}
330
28C1E
100
AcDbScale
 70
     0
300
1/16" = 1'-0"
140
0.0625
141
12.0
290
     0
  0
SCALE
  5
28C34
102
{ACAD_REACTORS
330
28C1E
102
}
330
28C1E
100
AcDbScale
 70
     0
300
3/32" = 1'-0"
140
0.09375
141
12.0
290
     0
  0
SCALE
  5
28C35
102
{ACAD_REACTORS
330
28C1E
102
}
330
28C1E
100
AcDbScale
 70
     0
300
1/8" = 1'-0"
140
0.125
141
12.0
290
     0
  0
SCALE
  5
28C36
102
{ACAD_REACTORS
330
28C1E
102
}
330
28C1E
100
AcDbScale
 70
     0
300
3/16" = 1'-0"
140
0.1875
141
12.0
290
     0
  0
SCALE
  5
28C37
102
{ACAD_REACTORS
330
28C1E
102
}
330
28C1E
100
AcDbScale
 70
     0
300
1/4" = 1'-0"
140
0.25
141
12.0
290
     0
  0
SCALE
  5
28C38
102
{ACAD_REACTORS
330
28C1E
102
}
330
28C1E
100
AcDbScale
 70
     0
300
3/8" = 1'-0"
140
0.375
141
12.0
290
     0
  0
SCALE
  5
28C39
102
{ACAD_REACTORS
330
28C1E
102
}
330
28C1E
100
AcDbScale
 70
     0
300
1/2" = 1'-0"
140
0.5
141
12.0
290
     0
  0
SCALE
  5
28C3A
102
{ACAD_REACTORS
330
28C1E
102
}
330
28C1E
100
AcDbScale
 70
     0
300
3/4" = 1'-0"
140
0.75
141
12.0
290
     0
  0
SCALE
  5
28C3B
102
{ACAD_REACTORS
330
28C1E
102
}
330
28C1E
100
AcDbScale
 70
     0
300
1" = 1'-0"
140
1.0
141
12.0
290
     0
  0
SCALE
  5
28C3C
102
{ACAD_REACTORS
330
28C1E
102
}
330
28C1E
100
AcDbScale
 70
     0
300
1-1/2" = 1'-0"
140
1.5
141
12.0
290
     0
  0
SCALE
  5
28C3D
102
{ACAD_REACTORS
330
28C1E
102
}
330
28C1E
100
AcDbScale
 70
     0
300
3" = 1'-0"
140
3.0
141
12.0
290
     0
  0
SCALE
  5
28C3E
102
{ACAD_REACTORS
330
28C1E
102
}
330
28C1E
100
AcDbScale
 70
     0
300
6" = 1'-0"
140
6.0
141
12.0
290
     0
  0
SCALE
  5
28C3F
102
{ACAD_REACTORS
330
28C1E
102
}
330
28C1E
100
AcDbScale
 70
     0
300
1'-0" = 1'-0"
140
12.0
141
12.0
290
     0
  0
TABLESTYLE
  5
28C1D
102
{ACAD_XDICTIONARY
360
28E70
102
}
102
{ACAD_REACTORS
330
28C1C
102
}
330
28C1C
100
AcDbTableStyle
  3
Standard
 70
     0
 71
     0
 40
0.06
 41
0.06
280
     0
281
     0
  7
Standard
140
0.18
170
     2
 62
     0
 63
     7
283
     0
274
    -2
284
     1
 64
     0
275
    -2
285
     1
 65
     0
276
    -2
286
     1
 66
     0
277
    -2
287
     1
 67
     0
278
    -2
288
     1
 68
     0
279
    -2
289
     1
 69
     0
  7
Standard
140
0.25
170
     5
 62
     0
 63
     7
283
     0
274
    -2
284
     1
 64
     0
275
    -2
285
     1
 65
     0
276
    -2
286
     1
 66
     0
277
    -2
287
     1
 67
     0
278
    -2
288
     1
 68
     0
279
    -2
289
     1
 69
     0
  7
Standard
140
0.18
170
     5
 62
     0
 63
     7
283
     0
274
    -2
284
     1
 64
     0
275
    -2
285
     1
 65
     0
276
    -2
286
     1
 66
     0
277
    -2
287
     1
 67
     0
278
    -2
288
     1
 68
     0
279
    -2
289
     1
 69
     0
  0
VISUALSTYLE
  5
28C11
102
{ACAD_REACTORS
330
28C0B
102
}
330
28C0B
100
AcDbVisualStyle
  2
2dWireframe
 70
     4
 71
     0
 72
     2
 73
     0
 90
        0
 40
-0.6
 41
-30.0
 62
     5
 63
     7
 74
     1
 91
        4
 64
     7
 65
   257
 75
     1
175
     1
 42
1.0
 92
        0
 66
   257
 43
1.0
 76
     1
 77
     6
 78
     2
 67
     7
 79
     5
170
     0
171
     0
290
     0
174
     0
 93
        1
 44
0.0
173
     0
291
     0
 45
0.0
1001
ACAD
1000
AcDbSavedByObjectVersion
1070
     0
  0
VISUALSTYLE
  5
28C13
102
{ACAD_REACTORS
330
28C0B
102
}
330
28C0B
100
AcDbVisualStyle
  2
3D Hidden
 70
     6
 71
     1
 72
     2
 73
     2
 90
        0
 40
-0.6
 41
-30.0
 62
     5
 63
     7
 74
     2
 91
        2
 64
     7
 65
   257
 75
     2
175
     1
 42
40.0
 92
        0
 66
   257
 43
1.0
 76
     1
 77
     6
 78
     2
 67
     7
 79
     3
170
     0
171
     0
290
     0
174
     0
 93
        1
 44
0.0
173
     0
291
     0
 45
0.0
1001
ACAD
1000
AcDbSavedByObjectVersion
1070
     0
  0
VISUALSTYLE
  5
28C12
102
{ACAD_REACTORS
330
28C0B
102
}
330
28C0B
100
AcDbVisualStyle
  2
3dWireframe
 70
     5
 71
     0
 72
     2
 73
     0
 90
        0
 40
-0.6
 41
-30.0
 62
     5
 63
     7
 74
     1
 91
        4
 64
     7
 65
   257
 75
     1
175
     1
 42
1.0
 92
        0
 66
   257
 43
1.0
 76
     1
 77
     6
 78
     2
 67
     7
 79
     5
170
     0
171
     0
290
     0
174
     0
 93
        1
 44
0.0
173
     0
291
     0
 45
0.0
1001
ACAD
1000
AcDbSavedByObjectVersion
1070
     0
  0
VISUALSTYLE
  5
28C10
102
{ACAD_REACTORS
330
28C0B
102
}
330
28C0B
100
AcDbVisualStyle
  2
Basic
 70
     7
 71
     1
 72
     0
 73
     1
 90
        0
 40
-0.6
 41
-30.0
 62
     5
 63
     7
 74
     0
 91
        4
 64
     7
 65
   257
 75
     1
175
     1
 42
1.0
 92
        8
 66
     7
 43
1.0
 76
     1
 77
     6
 78
     2
 67
     7
 79
     5
170
     0
171
     0
290
     0
174
     0
 93
        1
 44
0.0
173
     0
291
     1
 45
0.0
1001
ACAD
1000
AcDbSavedByObjectVersion
1070
     0
  0
VISUALSTYLE
  5
28C17
102
{ACAD_REACTORS
330
28C0B
102
}
330
28C0B
100
AcDbVisualStyle
  2
Brighten
 70
    12
 71
     2
 72
     2
 73
     0
 90
        0
 40
-0.6
 41
-30.0
 62
     5
 63
     7
 74
     1
 91
        4
 64
     7
 65
   257
 75
     1
175
     1
 42
1.0
 92
        8
 66
     7
 43
1.0
 76
     1
 77
     6
 78
     2
 67
     7
 79
     5
170
     0
171
     0
290
     0
174
     0
 93
        1
 44
50.0
173
     0
291
     1
 45
0.0
1001
ACAD
1000
AcDbSavedByObjectVersion
1070
     0
  0
VISUALSTYLE
  5
28C1B
102
{ACAD_REACTORS
330
28C0B
102
}
330
28C0B
100
AcDbVisualStyle
  2
ColorChange
 70
    16
 71
     2
 72
     2
 73
     3
 90
        0
 40
-0.6
 41
-30.0
 62
     5
 63
     8
 74
     1
 91
        4
 64
     7
 65
   257
 75
     1
175
     1
 42
1.0
 92
        8
 66
     8
 43
1.0
 76
     1
 77
     6
 78
     2
 67
     7
 79
     5
170
     0
171
     0
290
     0
174
     0
 93
        1
 44
0.0
173
     0
291
     1
 45
0.0
1001
ACAD
1000
AcDbSavedByObjectVersion
1070
     0
  0
VISUALSTYLE
  5
28C14
102
{ACAD_REACTORS
330
28C0B
102
}
330
28C0B
100
AcDbVisualStyle
  2
Conceptual
 70
     9
 71
     3
 72
     2
 73
     0
 90
        0
 40
-0.6
 41
-30.0
 62
     5
 63
     7
 74
     2
 91
        2
 64
     7
 65
   257
 75
     1
175
     1
 42
40.0
 92
        8
 66
     7
 43
1.0
 76
     1
 77
     6
 78
     2
 67
     7
 79
     3
170
     0
171
     0
290
     0
174
     0
 93
        1
 44
0.0
173
     0
291
     0
 45
0.0
1001
ACAD
1000
AcDbSavedByObjectVersion
1070
     0
  0
VISUALSTYLE
  5
28C16
102
{ACAD_REACTORS
330
28C0B
102
}
330
28C0B
100
AcDbVisualStyle
  2
Dim
 70
    11
 71
     2
 72
     2
 73
     0
 90
        0
 40
-0.6
 41
-30.0
 62
     5
 63
     7
 74
     1
 91
        4
 64
     7
 65
   257
 75
     1
175
     1
 42
1.0
 92
        8
 66
     7
 43
1.0
 76
     1
 77
     6
 78
     2
 67
     7
 79
     5
170
     0
171
     0
290
     0
174
     0
 93
        1
 44
-50.0
173
     0
291
     1
 45
0.0
1001
ACAD
1000
AcDbSavedByObjectVersion
1070
     0
  0
VISUALSTYLE
  5
28C1A
102
{ACAD_REACTORS
330
28C0B
102
}
330
28C0B
100
AcDbVisualStyle
  2
Facepattern
 70
    15
 71
     2
 72
     2
 73
     0
 90
        0
 40
-0.6
 41
-30.0
 62
     5
 63
     7
 74
     1
 91
        4
 64
     7
 65
   257
 75
     1
175
     1
 42
1.0
 92
        8
 66
     7
 43
1.0
 76
     1
 77
     6
 78
     2
 67
     7
 79
     5
170
     0
171
     0
290
     0
174
     0
 93
        1
 44
0.0
173
     0
291
     1
 45
0.0
1001
ACAD
1000
AcDbSavedByObjectVersion
1070
     0
  0
VISUALSTYLE
  5
28C0C
102
{ACAD_REACTORS
330
28C0B
102
}
330
28C0B
100
AcDbVisualStyle
  2
Flat
 70
     0
 71
     2
 72
     1
 73
     1
 90
        2
 40
-0.6
 41
30.0
 62
     5
 63
     7
 74
     0
 91
        4
 64
     7
 65
   257
 75
     1
175
     1
 42
1.0
 92
        8
 66
     7
 43
1.0
 76
     1
 77
     6
 78
     2
 67
     7
 79
     5
170
     0
171
     0
290
     0
174
     0
 93
       13
 44
0.0
173
     0
291
     1
 45
0.0
1001
ACAD
1000
AcDbSavedByObjectVersion
1070
     0
  0
VISUALSTYLE
  5
28C0D
102
{ACAD_REACTORS
330
28C0B
102
}
330
28C0B
100
AcDbVisualStyle
  2
FlatWithEdges
 70
     1
 71
     2
 72
     1
 73
     1
 90
        2
 40
-0.6
 41
30.0
 62
     5
 63
     7
 74
     1
 91
        4
 64
     7
 65
   257
 75
     1
175
     1
 42
1.0
 92
        0
 66
   257
 43
1.0
 76
     1
 77
     6
 78
     2
 67
     7
 79
     5
170
     0
171
     0
290
     0
174
     0
 93
       13
 44
0.0
173
     0
291
     1
 45
0.0
1001
ACAD
1000
AcDbSavedByObjectVersion
1070
     0
  0
VISUALSTYLE
  5
28C0E
102
{ACAD_REACTORS
330
28C0B
102
}
330
28C0B
100
AcDbVisualStyle
  2
Gouraud
 70
     2
 71
     2
 72
     2
 73
     1
 90
        2
 40
-0.6
 41
30.0
 62
     5
 63
     7
 74
     0
 91
        4
 64
     7
 65
   257
 75
     1
175
     1
 42
1.0
 92
        0
 66
     7
 43
1.0
 76
     1
 77
     6
 78
     2
 67
     7
 79
     5
170
     0
171
     0
290
     0
174
     0
 93
       13
 44
0.0
173
     0
291
     1
 45
0.0
1001
ACAD
1000
AcDbSavedByObjectVersion
1070
     0
  0
VISUALSTYLE
  5
28C0F
102
{ACAD_REACTORS
330
28C0B
102
}
330
28C0B
100
AcDbVisualStyle
  2
GouraudWithEdges
 70
     3
 71
     2
 72
     2
 73
     1
 90
        2
 40
-0.6
 41
30.0
 62
     5
 63
     7
 74
     1
 91
        4
 64
     7
 65
   257
 75
     1
175
     1
 42
1.0
 92
        0
 66
   257
 43
1.0
 76
     1
 77
     6
 78
     2
 67
     7
 79
     5
170
     0
171
     0
290
     0
174
     0
 93
       13
 44
0.0
173
     0
291
     1
 45
0.0
1001
ACAD
1000
AcDbSavedByObjectVersion
1070
     0
  0
VISUALSTYLE
  5
28C19
102
{ACAD_REACTORS
330
28C0B
102
}
330
28C0B
100
AcDbVisualStyle
  2
Linepattern
 70
    14
 71
     2
 72
     2
 73
     0
 90
        0
 40
-0.6
 41
-30.0
 62
     5
 63
     7
 74
     1
 91
        4
 64
     7
 65
   257
 75
     7
175
     7
 42
1.0
 92
        8
 66
     7
 43
1.0
 76
     1
 77
     6
 78
     2
 67
     7
 79
     5
170
     0
171
     0
290
     0
174
     0
 93
        1
 44
0.0
173
     0
291
     1
 45
0.0
1001
ACAD
1000
AcDbSavedByObjectVersion
1070
     0
  0
VISUALSTYLE
  5
28C15
102
{ACAD_REACTORS
330
28C0B
102
}
330
28C0B
100
AcDbVisualStyle
  2
Realistic
 70
     8
 71
     2
 72
     2
 73
     0
 90
        0
 40
-0.6
 41
-30.0
 62
     5
 63
     7
 74
     1
 91
        0
 64
     7
 65
   257
 75
     1
175
     1
 42
1.0
 92
        8
 66
     8
 43
1.0
 76
     1
 77
     6
 78
     2
 67
     7
 79
     5
170
     0
171
     0
290
     0
174
     0
 93
       13
 44
0.0
173
     0
291
     0
 45
0.0
1001
ACAD
1000
AcDbSavedByObjectVersion
1070
     0
  0
VISUALSTYLE
  5
28C18
102
{ACAD_REACTORS
330
28C0B
102
}
330
28C0B
100
AcDbVisualStyle
  2
Thicken
 70
    13
 71
     2
 72
     2
 73
     0
 90
        0
 40
-0.6
 41
-30.0
 62
     5
 63
     7
 74
     1
 91
        4
 64
     7
 65
   257
 75
     1
175
     1
 42
1.0
 92
       12
 66
     7
 43
1.0
 76
     1
 77
     6
 78
     2
 67
     7
 79
     5
170
     0
171
     0
290
     0
174
     0
 93
        1
 44
0.0
173
     0
291
     1
 45
0.0
1001
ACAD
1000
AcDbSavedByObjectVersion
1070
     0
  0
DICTIONARYVAR
  5
28E76
102
{ACAD_REACTORS
330
79D9
102
}
330
79D9
100
DictionaryVariables
280
     0
  1
1:1
  0
DICTIONARYVAR
  5
28E74
102
{ACAD_REACTORS
330
79D9
102
}
330
79D9
100
DictionaryVariables
280
     0
  1
STANDARD
  0
DICTIONARYVAR
  5
28E73
102
{ACAD_REACTORS
330
79D9
102
}
330
79D9
100
DictionaryVariables
280
     0
  1
STANDARD
  0
DICTIONARYVAR
  5
79DA
102
{ACAD_REACTORS
330
79D9
102
}
330
79D9
100
DictionaryVariables
280
     0
  1
1
  0
DICTIONARYVAR
  5
29F8F
102
{ACAD_REACTORS
330
79D9
102
}
330
79D9
100
DictionaryVariables
280
     0
  1
0
  0
DICTIONARYVAR
  5
28E77
102
{ACAD_REACTORS
330
79D9
102
}
330
79D9
100
DictionaryVariables
280
     0
  1
0
  0
DICTIONARYVAR
  5
28E75
102
{ACAD_REACTORS
330
79D9
102
}
330
79D9
100
DictionaryVariables
280
     0
  1
0
  0
DICTIONARYVAR
  5
13601
102
{ACAD_REACTORS
330
79D9
102
}
330
79D9
100
DictionaryVariables
280
     0
  1

  0
DICTIONARYVAR
  5
29F8E
102
{ACAD_REACTORS
330
79D9
102
}
330
79D9
100
DictionaryVariables
280
     0
  1
127
  0
XRECORD
  5
1047
102
{ACAD_REACTORS
330
1012
102
}
330
1012
100
AcDbXrecord
280
     1
1000
ADE02C001
1070
     1
1070
     0
1002
{
1002
}
1002
{
1002
}
1002
{
1002
}
1000

  0
ACAD_PROXY_OBJECT
  5
1BA
102
{ACAD_REACTORS
330
1B9
102
}
330
1B9
100
AcDbProxyObject
 90
      499
 91
      504
 95
       23
 70
     0
 93
       51
310
4050289602645F
 94
        0
1001
ACAD
1000
AcRTDxfName
1000
AMLOADER
1000
AcRTDxfName
1000
AMLOADER
1000
AcRTDxfName
1000
AMLOADER
1000
AcRTDxfName
1000
AMLOADER
1000
AcRTDxfName
1000
AMLOADER
1000
AcRTDxfName
1000
AMLOADER
1000
AcRTDxfName
1000
AMLOADER
1000
AcRTDxfName
1000
AMLOADER
1000
AcRTDxfName
1000
AMLOADER
1000
AcRTDxfName
1000
AMLOADER
1000
AcRTDxfName
1000
AMLOADER
1000
AcRTDxfName
1000
AMLOADER
1000
AcRTDxfName
1000
AMLOADER
1000
AcRTDxfName
1000
AMLOADER
1000
AcRTDxfName
1000
AMLOADER
1000
AcRTDxfName
1000
AMLOADER
1000
AcRTDxfName
1000
AMLOADER
1000
AcRTDxfName
1000
AMLOADER
1000
AcRTDxfName
1000
AMLOADER
1000
AcRTDxfName
1000
AMLOADER
1000
AcRTDxfName
1000
AMLOADER
1000
AcRTDxfName
1000
AMLOADER
1000
AcRTDxfName
1000
AMLOADER
1000
AcRTDxfName
1000
AMLOADER
1000
AcRTDxfName
1000
AMLOADER
1000
AcRTDxfName
1000
AMLOADER
1000
AcRTDxfName
1000
AMLOADER
1000
AcRTDxfName
1000
AMLOADER
1000
AcRTDxfName
1000
AMLOADER
1000
AcRTDxfName
1000
AMLOADER
1000
AcRTDxfName
1000
AMLOADER
1000
AcRTDxfName
1000
AMLOADER
1000
AcRTDxfName
1000
AMLOADER
1000
AcRTDxfName
1000
AMLOADER
1000
AcRTDxfName
1000
AMLOADER
1000
AcRTDxfName
1000
AMLOADER
1000
AcRTDxfName
1000
AMLOADER
1000
AcRTDxfName
1000
AMLOADER
1000
AcRTDxfName
1000
AMLOADER
1000
AcRTDxfName
1000
AMLOADER
1000
AcRTDxfName
1000
AMLOADER
1000
AcRTDxfName
1000
AMLOADER
  0
XRECORD
  5
133E0
102
{ACAD_REACTORS
330
133DF
102
}
330
133DF
100
AcDbXrecord
280
     1
330
0
330
0
330
0
330
0
330
0
330
0
330
0
330
0
330
0
330
0
330
0
330
0
330
0
330
0
330
0
330
0
330
0
330
0
330
0
330
0
330
0
330
0
330
0
330
0
330
0
330
0
330
0
330
0
330
0
330
0
330
0
330
0
330
0
330
0
330
0
330
0
330
0
330
0
330
0
330
0
330
0
330
0
330
0
330
0
330
0
330
0
330
0
330
0
330
0
330
0
330
0
330
0
330
0
330
0
330
0
330
0
330
0
330
0
330
0
330
0
330
0
330
0
330
0
330
0
330
0
330
0
330
0
330
0
330
0
330
0
330
0
330
0
330
0
330
0
330
0
330
0
330
0
330
0
330
0
330
0
330
0
330
0
330
0
330
0
330
0
330
0
330
0
330
0
330
0
330
0
330
0
330
0
330
0
330
0
330
0
330
0
330
0
330
0
330
0
330
0
330
0
330
0
330
0
330
0
330
0
330
0
330
0
330
0
330
0
330
0
330
0
330
0
330
0
330
0
330
0
330
0
330
0
330
0
330
0
330
0
330
0
330
0
330
0
330
0
330
0
330
0
330
0
330
0
330
0
330
0
330
0
330
0
330
0
330
0
330
0
330
0
330
0
  0
DICTIONARY
  5
29FA0
330
1355A
100
AcDbDictionary
280
     1
281
     1
  3
ACAD_XREC_ROUNDTRIP
360
29FA1
  0
DICTIONARY
  5
29F92
330
22
100
AcDbDictionary
280
     1
281
     1
  3
ACAD_XREC_ROUNDTRIP
360
29F93
  0
DICTIONARY
  5
28BFC
330
28BFB
100
AcDbDictionary
280
     1
281
     1
  3
ACAD_XREC_ROUNDTRIP
360
29FA3
  3
BUMPTILE
360
28BFE
  3
DIFFUSETILE
360
28BFD
  3
OPACITYTILE
360
28C01
  3
REFLECTIONTILE
360
28C00
  3
REFRACTIONTILE
360
28C02
  3
SPECULARTILE
360
28BFF
  0
DICTIONARY
  5
28BF4
330
28BF3
100
AcDbDictionary
280
     1
281
     1
  3
ACAD_XREC_ROUNDTRIP
360
29FA2
  3
BUMPTILE
360
28BF6
  3
DIFFUSETILE
360
28BF5
  3
OPACITYTILE
360
28BF9
  3
REFLECTIONTILE
360
28BF8
  3
REFRACTIONTILE
360
28BFA
  3
SPECULARTILE
360
28BF7
  0
DICTIONARY
  5
28C04
330
28C03
100
AcDbDictionary
280
     1
281
     1
  3
ACAD_XREC_ROUNDTRIP
360
29FA4
  3
BUMPTILE
360
28C06
  3
DIFFUSETILE
360
28C05
  3
OPACITYTILE
360
28C09
  3
REFLECTIONTILE
360
28C08
  3
REFRACTIONTILE
360
28C0A
  3
SPECULARTILE
360
28C07
  0
DICTIONARY
  5
29F9E
330
CBD1
100
AcDbDictionary
280
     1
281
     1
  3
ACAD_XREC_ROUNDTRIP
360
29F9F
  0
DICTIONARY
  5
29F9C
330
CBD0
100
AcDbDictionary
280
     1
281
     1
  3
ACAD_XREC_ROUNDTRIP
360
29F9D
  0
DICTIONARY
  5
29F94
330
B30E
100
AcDbDictionary
280
     1
281
     1
  3
ACAD_XREC_ROUNDTRIP
360
29F95
  0
DICTIONARY
  5
29F96
330
BF67
100
AcDbDictionary
280
     1
281
     1
  3
ACAD_XREC_ROUNDTRIP
360
29F97
  0
DICTIONARY
  5
29F98
330
BF68
100
AcDbDictionary
280
     1
281
     1
  3
ACAD_XREC_ROUNDTRIP
360
29F99
  0
DICTIONARY
  5
29F9A
330
BF69
100
AcDbDictionary
280
     1
281
     1
  3
ACAD_XREC_ROUNDTRIP
360
29F9B
  0
DICTIONARY
  5
28E70
330
28C1D
100
AcDbDictionary
280
     1
281
     1
  3
ACAD_ROUNDTRIP_2008_TABLESTYLE_CELLSTYLEMAP
360
29F90
  3
ACAD_XREC_ROUNDTRIP
360
29FA5
  0
XRECORD
  5
29FA1
102
{ACAD_REACTORS
330
29FA0
102
}
330
29FA0
100
AcDbXrecord
280
     1
102
SHADEPLOT
 70
     0
102
SHADEPLOTRESLEVEL
 70
     2
102
SHADEPLOTCUSTOMDPI
 70
   300
  0
XRECORD
  5
29F93
102
{ACAD_REACTORS
330
29F92
102
}
330
29F92
100
AcDbXrecord
280
     1
102
SHADEPLOT
 70
     0
102
SHADEPLOTRESLEVEL
 70
     2
102
SHADEPLOTCUSTOMDPI
 70
   300
  0
XRECORD
  5
29FA3
102
{ACAD_REACTORS
330
28BFC
102
}
330
28BFC
100
AcDbXrecord
280
     1
102
MATERIAL
148
0.0
149
0.0
149
0.0
 93
        0
 94
      127
282
     0
 72
     0
 77
     0
171
     0
175
     0
179
     0
273
     0
  0
XRECORD
  5
28BFE
102
{ACAD_REACTORS
330
28BFC
102
}
330
28BFC
100
AcDbXrecord
280
     1
270
     1
271
     1
  0
XRECORD
  5
28BFD
102
{ACAD_REACTORS
330
28BFC
102
}
330
28BFC
100
AcDbXrecord
280
     1
270
     1
271
     1
  0
XRECORD
  5
28C01
102
{ACAD_REACTORS
330
28BFC
102
}
330
28BFC
100
AcDbXrecord
280
     1
270
     1
271
     1
  0
XRECORD
  5
28C00
102
{ACAD_REACTORS
330
28BFC
102
}
330
28BFC
100
AcDbXrecord
280
     1
270
     1
271
     1
  0
XRECORD
  5
28C02
102
{ACAD_REACTORS
330
28BFC
102
}
330
28BFC
100
AcDbXrecord
280
     1
270
     1
271
     1
  0
XRECORD
  5
28BFF
102
{ACAD_REACTORS
330
28BFC
102
}
330
28BFC
100
AcDbXrecord
280
     1
270
     1
271
     1
  0
XRECORD
  5
29FA2
102
{ACAD_REACTORS
330
28BF4
102
}
330
28BF4
100
AcDbXrecord
280
     1
102
MATERIAL
148
0.0
149
0.0
149
0.0
 93
        0
 94
      127
282
     0
 72
     0
 77
     0
171
     0
175
     0
179
     0
273
     0
  0
XRECORD
  5
28BF6
102
{ACAD_REACTORS
330
28BF4
102
}
330
28BF4
100
AcDbXrecord
280
     1
270
     1
271
     1
  0
XRECORD
  5
28BF5
102
{ACAD_REACTORS
330
28BF4
102
}
330
28BF4
100
AcDbXrecord
280
     1
270
     1
271
     1
  0
XRECORD
  5
28BF9
102
{ACAD_REACTORS
330
28BF4
102
}
330
28BF4
100
AcDbXrecord
280
     1
270
     1
271
     1
  0
XRECORD
  5
28BF8
102
{ACAD_REACTORS
330
28BF4
102
}
330
28BF4
100
AcDbXrecord
280
     1
270
     1
271
     1
  0
XRECORD
  5
28BFA
102
{ACAD_REACTORS
330
28BF4
102
}
330
28BF4
100
AcDbXrecord
280
     1
270
     1
271
     1
  0
XRECORD
  5
28BF7
102
{ACAD_REACTORS
330
28BF4
102
}
330
28BF4
100
AcDbXrecord
280
     1
270
     1
271
     1
  0
XRECORD
  5
29FA4
102
{ACAD_REACTORS
330
28C04
102
}
330
28C04
100
AcDbXrecord
280
     1
102
MATERIAL
148
0.0
149
0.0
149
0.0
 93
        0
 94
      127
282
     0
 72
     0
 77
     0
171
     0
175
     0
179
     0
273
     0
  0
XRECORD
  5
28C06
102
{ACAD_REACTORS
330
28C04
102
}
330
28C04
100
AcDbXrecord
280
     1
270
     1
271
     1
  0
XRECORD
  5
28C05
102
{ACAD_REACTORS
330
28C04
102
}
330
28C04
100
AcDbXrecord
280
     1
270
     1
271
     1
  0
XRECORD
  5
28C09
102
{ACAD_REACTORS
330
28C04
102
}
330
28C04
100
AcDbXrecord
280
     1
270
     1
271
     1
  0
XRECORD
  5
28C08
102
{ACAD_REACTORS
330
28C04
102
}
330
28C04
100
AcDbXrecord
280
     1
270
     1
271
     1
  0
XRECORD
  5
28C0A
102
{ACAD_REACTORS
330
28C04
102
}
330
28C04
100
AcDbXrecord
280
     1
270
     1
271
     1
  0
XRECORD
  5
28C07
102
{ACAD_REACTORS
330
28C04
102
}
330
28C04
100
AcDbXrecord
280
     1
270
     1
271
     1
  0
XRECORD
  5
29F9F
102
{ACAD_REACTORS
330
29F9E
102
}
330
29F9E
100
AcDbXrecord
280
     1
102
SHADEPLOT
 70
     1
102
SHADEPLOTRESLEVEL
 70
     2
102
SHADEPLOTCUSTOMDPI
 70
   200
  0
XRECORD
  5
29F9D
102
{ACAD_REACTORS
330
29F9C
102
}
330
29F9C
100
AcDbXrecord
280
     1
102
SHADEPLOT
 70
     1
102
SHADEPLOTRESLEVEL
 70
     2
102
SHADEPLOTCUSTOMDPI
 70
   200
  0
XRECORD
  5
29F95
102
{ACAD_REACTORS
330
29F94
102
}
330
29F94
100
AcDbXrecord
280
     1
102
SHADEPLOT
 70
     1
102
SHADEPLOTRESLEVEL
 70
     2
102
SHADEPLOTCUSTOMDPI
 70
   300
  0
XRECORD
  5
29F97
102
{ACAD_REACTORS
330
29F96
102
}
330
29F96
100
AcDbXrecord
280
     1
102
SHADEPLOT
 70
     1
102
SHADEPLOTRESLEVEL
 70
     2
102
SHADEPLOTCUSTOMDPI
 70
   300
  0
XRECORD
  5
29F99
102
{ACAD_REACTORS
330
29F98
102
}
330
29F98
100
AcDbXrecord
280
     1
102
SHADEPLOT
 70
     1
102
SHADEPLOTRESLEVEL
 70
     2
102
SHADEPLOTCUSTOMDPI
 70
   300
  0
XRECORD
  5
29F9B
102
{ACAD_REACTORS
330
29F9A
102
}
330
29F9A
100
AcDbXrecord
280
     1
102
SHADEPLOT
 70
     1
102
SHADEPLOTRESLEVEL
 70
     2
102
SHADEPLOTCUSTOMDPI
 70
   300
  0
CELLSTYLEMAP
  5
29F90
102
{ACAD_REACTORS
330
28E70
102
}
330
28E70
100
AcDbCellStyleMap
 90
        3
300
CELLSTYLE
  1
TABLEFORMAT_BEGIN
 90
        5
170
     1
 91
        0
 92
    32768
 62
   257
 93
        1
300
CONTENTFORMAT
  1
CONTENTFORMAT_BEGIN
 90
        0
 91
        0
 92
      512
 93
        0
300

 40
0.0
140
1.0
 94
        5
 62
     0
340
11
144
0.25
309
CONTENTFORMAT_END
171
     0
 94
        0
309
TABLEFORMAT_END
  1
CELLSTYLE_BEGIN
 90
        1
 91
        1
300
_TITLE
309
CELLSTYLE_END
300
CELLSTYLE
  1
TABLEFORMAT_BEGIN
 90
        5
170
     1
 91
        0
 92
        0
 62
   257
 93
        1
300
CONTENTFORMAT
  1
CONTENTFORMAT_BEGIN
 90
        0
 91
        0
 92
      512
 93
        0
300

 40
0.0
140
1.0
 94
        5
 62
     0
340
11
144
0.18
309
CONTENTFORMAT_END
171
     0
 94
        0
309
TABLEFORMAT_END
  1
CELLSTYLE_BEGIN
 90
        2
 91
        1
300
_HEADER
309
CELLSTYLE_END
300
CELLSTYLE
  1
TABLEFORMAT_BEGIN
 90
        5
170
     1
 91
        0
 92
        0
 62
   257
 93
        1
300
CONTENTFORMAT
  1
CONTENTFORMAT_BEGIN
 90
        0
 91
        0
 92
      512
 93
        0
300

 40
0.0
140
1.0
 94
        2
 62
     0
340
11
144
0.18
309
CONTENTFORMAT_END
171
     0
 94
        0
309
TABLEFORMAT_END
  1
CELLSTYLE_BEGIN
 90
        3
 91
        2
300
_DATA
309
CELLSTYLE_END
  0
XRECORD
  5
29FA5
102
{ACAD_REACTORS
330
28E70
102
}
330
28E70
100
AcDbXrecord
280
     1
102
ACAD_ROUNDTRIP_PRE2007_TABLESTYLE
 90
      512
 91
        0
  1

 92
      512
 93
        0
  2

 94
      512
 95
        0
  3

  0
ENDSEC
  0
EOF
